  0
SECTION
  2
HEADER
  9
$ACADVER
  1
AC1015
  9
$ACADMAINTVER
 70
     6
  9
$DWGCODEPAGE
  3
ANSI_1252
  9
$INSBASE
 10
0.0
 20
0.0
 30
0.0
  9
$EXTMIN
 10
0.0
 20
0.0
 30
0.0
  9
$EXTMAX
 10
1000.0
 20
600.0
 30
0.0
  9
$LIMMIN
 10
0.0
 20
0.0
  9
$LIMMAX
 10
1000.0
 20
600.0
  9
$ORTHOMODE
 70
     0
  9
$REGENMODE
 70
     1
  9
$FILLMODE
 70
     1
  9
$QTEXTMODE
 70
     0
  9
$MIRRTEXT
 70
     1
  9
$LTSCALE
 40
1.0
  9
$ATTMODE
 70
     1
  9
$TEXTSIZE
 40
3.5
  9
$TRACEWID
 40
1.0
  9
$TEXTSTYLE
  7
Standard
  9
$CLAYER
  8
0
  9
$CELTYPE
  6
ByLayer
  9
$CECOLOR
 62
   256
  9
$CELTSCALE
 40
1.0
  9
$DISPSILH
 70
     0
  9
$DIMSCALE
 40
1.0
  9
$DIMASZ
 40
3.302
  9
$DIMEXO
 40
1.0
  9
$DIMDLI
 40
3.75
  9
$DIMRND
 40
0.0
  9
$DIMDLE
 40
0.0
  9
$DIMEXE
 40
1.0
  9
$DIMTP
 40
0.0
  9
$DIMTM
 40
0.0
  9
$DIMTXT
 40
3.5
  9
$DIMCEN
 40
2.5
  9
$DIMTSZ
 40
0.0
  9
$DIMTOL
 70
     0
  9
$DIMLIM
 70
     0
  9
$DIMTIH
 70
     1
  9
$DIMTOH
 70
     1
  9
$DIMSE1
 70
     0
  9
$DIMSE2
 70
     0
  9
$DIMTAD
 70
     1
  9
$DIMZIN
 70
     0
  9
$DIMBLK
  1

  9
$DIMASO
 70
     1
  9
$DIMSHO
 70
     1
  9
$DIMPOST
  1

  9
$DIMAPOST
  1

  9
$DIMALT
 70
     0
  9
$DIMALTD
 70
     3
  9
$DIMALTF
 40
0.0393700787
  9
$DIMLFAC
 40
1.0
  9
$DIMTOFL
 70
     1
  9
$DIMTVP
 40
0.0
  9
$DIMTIX
 70
     0
  9
$DIMSOXD
 70
     0
  9
$DIMSAH
 70
     0
  9
$DIMBLK1
  1

  9
$DIMBLK2
  1

  9
$DIMSTYLE
  2
ISO-25
  9
$DIMCLRD
 70
     0
  9
$DIMCLRE
 70
     0
  9
$DIMCLRT
 70
     0
  9
$DIMTFAC
 40
1.0
  9
$DIMGAP
 40
1.524
  9
$DIMJUST
 70
     0
  9
$DIMSD1
 70
     0
  9
$DIMSD2
 70
     0
  9
$DIMTOLJ
 70
     0
  9
$DIMTZIN
 70
     0
  9
$DIMALTZ
 70
     0
  9
$DIMALTTZ
 70
     0
  9
$DIMUPT
 70
     0
  9
$DIMDEC
 70
     2
  9
$DIMTDEC
 70
     2
  9
$DIMALTU
 70
     2
  9
$DIMALTTD
 70
     3
  9
$DIMTXSTY
  7
Standard
  9
$DIMAUNIT
 70
     0
  9
$DIMADEC
 70
     2
  9
$DIMALTRND
 40
0.0
  9
$DIMAZIN
 70
     0
  9
$DIMDSEP
 70
    44
  9
$DIMATFIT
 70
     3
  9
$DIMFRAC
 70
     0
  9
$DIMLDRBLK
  1

  9
$DIMLUNIT
 70
     2
  9
$DIMLWD
 70
    -2
  9
$DIMLWE
 70
    -2
  9
$DIMTMOVE
 70
     0
  9
$LUNITS
 70
     2
  9
$LUPREC
 70
     2
  9
$SKETCHINC
 40
1.0
  9
$FILLETRAD
 40
10.0
  9
$AUNITS
 70
     0
  9
$AUPREC
 70
     2
  9
$MENU
  1
.
  9
$ELEVATION
 40
0.0
  9
$PELEVATION
 40
0.0
  9
$THICKNESS
 40
0.0
  9
$LIMCHECK
 70
     0
  9
$CHAMFERA
 40
0.0
  9
$CHAMFERB
 40
0.0
  9
$CHAMFERC
 40
0.0
  9
$CHAMFERD
 40
0.0
  9
$SKPOLY
 70
     0
  9
$TDCREATE
 40
2457862.888183252
  9
$TDUCREATE
 40
2457862.804849919
  9
$TDUPDATE
 40
2457862.88818544
  9
$TDUUPDATE
 40
2457862.804852107
  9
$TDINDWG
 40
0.0000000116
  9
$TDUSRTIMER
 40
0.0000000116
  9
$USRTIMER
 70
     1
  9
$ANGBASE
 50
0.0
  9
$ANGDIR
 70
     0
  9
$PDMODE
 70
     0
  9
$PDSIZE
 40
-1.0
  9
$PLINEWID
 40
0.0
  9
$SPLFRAME
 70
     0
  9
$SPLINETYPE
 70
     6
  9
$SPLINESEGS
 70
     8
  9
$HANDSEED
  5
6DA
  9
$SURFTAB1
 70
     6
  9
$SURFTAB2
 70
     6
  9
$SURFTYPE
 70
     6
  9
$SURFU
 70
     6
  9
$SURFV
 70
     6
  9
$UCSBASE
  2

  9
$UCSNAME
  2

  9
$UCSORG
 10
0.0
 20
0.0
 30
0.0
  9
$UCSXDIR
 10
1.0
 20
0.0
 30
0.0
  9
$UCSYDIR
 10
0.0
 20
1.0
 30
0.0
  9
$UCSORTHOREF
  2

  9
$UCSORTHOVIEW
 70
     0
  9
$UCSORGTOP
 10
0.0
 20
0.0
 30
0.0
  9
$UCSORGBOTTOM
 10
0.0
 20
0.0
 30
0.0
  9
$UCSORGLEFT
 10
0.0
 20
0.0
 30
0.0
  9
$UCSORGRIGHT
 10
0.0
 20
0.0
 30
0.0
  9
$UCSORGFRONT
 10
0.0
 20
0.0
 30
0.0
  9
$UCSORGBACK
 10
0.0
 20
0.0
 30
0.0
  9
$PUCSBASE
  2

  9
$PUCSNAME
  2

  9
$PUCSORG
 10
0.0
 20
0.0
 30
0.0
  9
$PUCSXDIR
 10
1.0
 20
0.0
 30
0.0
  9
$PUCSYDIR
 10
0.0
 20
1.0
 30
0.0
  9
$PUCSORTHOREF
  2

  9
$PUCSORTHOVIEW
 70
     0
  9
$PUCSORGTOP
 10
0.0
 20
0.0
 30
0.0
  9
$PUCSORGBOTTOM
 10
0.0
 20
0.0
 30
0.0
  9
$PUCSORGLEFT
 10
0.0
 20
0.0
 30
0.0
  9
$PUCSORGRIGHT
 10
0.0
 20
0.0
 30
0.0
  9
$PUCSORGFRONT
 10
0.0
 20
0.0
 30
0.0
  9
$PUCSORGBACK
 10
0.0
 20
0.0
 30
0.0
  9
$USERI1
 70
     0
  9
$USERI2
 70
     0
  9
$USERI3
 70
     0
  9
$USERI4
 70
     0
  9
$USERI5
 70
     0
  9
$USERR1
 40
0.0
  9
$USERR2
 40
0.0
  9
$USERR3
 40
0.0
  9
$USERR4
 40
0.0
  9
$USERR5
 40
0.0
  9
$WORLDVIEW
 70
     1
  9
$SHADEDGE
 70
     3
  9
$SHADEDIF
 70
    70
  9
$TILEMODE
 70
     1
  9
$MAXACTVP
 70
    64
  9
$PINSBASE
 10
0.0
 20
0.0
 30
0.0
  9
$PLIMCHECK
 70
     0
  9
$PEXTMIN
 10
1.0000000000E+20
 20
1.0000000000E+20
 30
1.0000000000E+20
  9
$PEXTMAX
 10
-1.0000000000E+20
 20
-1.0000000000E+20
 30
-1.0000000000E+20
  9
$PLIMMIN
 10
0.0
 20
0.0
  9
$PLIMMAX
 10
420.0
 20
297.0
  9
$UNITMODE
 70
     0
  9
$VISRETAIN
 70
     1
  9
$PLINEGEN
 70
     0
  9
$PSLTSCALE
 70
     1
  9
$TREEDEPTH
 70
  3020
  9
$CMLSTYLE
  2
Standard
  9
$CMLJUST
 70
     0
  9
$CMLSCALE
 40
20.0
  9
$PROXYGRAPHICS
 70
     1
  9
$MEASUREMENT
 70
     1
  9
$CELWEIGHT
370
    -1
  9
$ENDCAPS
280
     0
  9
$JOINSTYLE
280
     0
  9
$LWDISPLAY
290
     1
  9
$INSUNITS
 70
     4
  9
$HYPERLINKBASE
  1

  9
$STYLESHEET
  1

  9
$XEDIT
290
     1
  9
$CEPSNTYPE
380
     0
  9
$PSTYLEMODE
290
     1
  9
$FINGERPRINTGUID
  2
{9E4F6F88-E297-4D67-AE4E-01FF1A8780B1}
  9
$VERSIONGUID
  2
{FAEB1C32-E019-11D5-929B-00C0DF256EC4}
  9
$EXTNAMES
290
     1
  9
$PSVPSCALE
 40
0.0
  9
$OLESTARTUP
290
     0
  0
ENDSEC
  0
SECTION
  2
CLASSES
  0
CLASS
  1
ACDBDICTIONARYWDFLT
  2
AcDbDictionaryWithDefault
  3
ObjectDBX Classes
 90
        0
280
     0
281
     0
  0
CLASS
  1
VISUALSTYLE
  2
AcDbVisualStyle
  3
ObjectDBX Classes
 90
     4095
280
     0
281
     0
  0
CLASS
  1
MATERIAL
  2
AcDbMaterial
  3
ObjectDBX Classes
 90
     1153
280
     0
281
     0
  0
CLASS
  1
SCALE
  2
AcDbScale
  3
ObjectDBX Classes
 90
     1153
280
     0
281
     0
  0
CLASS
  1
TABLESTYLE
  2
AcDbTableStyle
  3
ObjectDBX Classes
 90
     4095
280
     0
281
     0
  0
CLASS
  1
MLEADERSTYLE
  2
AcDbMLeaderStyle
  3
ACDB_MLEADERSTYLE_CLASS
 90
     4095
280
     0
281
     0
  0
CLASS
  1
SUN
  2
AcDbSun
  3
SCENEOE
 90
     1153
280
     0
281
     0
  0
CLASS
  1
ACDBPLACEHOLDER
  2
AcDbPlaceHolder
  3
ObjectDBX Classes
 90
        0
280
     0
281
     0
  0
CLASS
  1
LAYOUT
  2
AcDbLayout
  3
ObjectDBX Classes
 90
        0
280
     0
281
     0
  0
ENDSEC
  0
SECTION
  2
TABLES
  0
TABLE
  2
VPORT
  5
8
330
0
100
AcDbSymbolTable
 70
     1
  0
VPORT
  5
29
330
8
100
AcDbSymbolTableRecord
100
AcDbViewportTableRecord
  2
*Active
 70
     0
 10
0.0
 20
0.0
 11
1.0
 21
1.0
 12
500.0
 22
300.0
 13
0.0
 23
0.0
 14
10.0
 24
10.0
 15
10.0
 25
10.0
 16
0.0
 26
0.0
 36
1.0
 17
0.0
 27
0.0
 37
0.0
 40
600.0
 41
1.6666666667
 42
50.0
 43
0.0
 44
0.0
 50
0.0
 51
0.0
 71
     0
 72
  2000
 73
     1
 74
     3
 75
     0
 76
     0
 77
     0
 78
     0
281
     0
 65
     1
110
0.0
120
0.0
130
0.0
111
1.0
121
0.0
131
0.0
112
0.0
122
1.0
132
0.0
 79
     0
146
0.0
  0
ENDTAB
  0
TABLE
  2
LTYPE
  5
5
330
0
100
AcDbSymbolTable
 70
     6
  0
LTYPE
  5
14
330
5
100
AcDbSymbolTableRecord
100
AcDbLinetypeTableRecord
  2
ByBlock
 70
     0
  3

 72
    65
 73
     0
 40
0.0
  0
LTYPE
  5
15
330
5
100
AcDbSymbolTableRecord
100
AcDbLinetypeTableRecord
  2
ByLayer
 70
     0
  3

 72
    65
 73
     0
 40
0.0
  0
LTYPE
  5
16
330
5
100
AcDbSymbolTableRecord
100
AcDbLinetypeTableRecord
  2
Continuous
 70
     0
  3
Solid line
 72
    65
 73
     0
 40
0.0
  0
LTYPE
  5
6E
330
5
100
AcDbSymbolTableRecord
100
AcDbLinetypeTableRecord
  2
HIDDEN
 70
     0
  3
Hidden __ __ __ __ __ __ __ __ __ __ __ __ __ __
 72
    65
 73
     2
 40
1.905
 49
1.27
 74
     0
 49
-0.635
 74
     0
  0
LTYPE
  5
6F
330
5
100
AcDbSymbolTableRecord
100
AcDbLinetypeTableRecord
  2
PHANTOM
 70
     0
  3
Phantom ______  __  __  ______  __  __  ______
 72
    65
 73
     6
 40
12.7
 49
6.35
 74
     0
 49
-1.27
 74
     0
 49
1.27
 74
     0
 49
-1.27
 74
     0
 49
1.27
 74
     0
 49
-1.27
 74
     0
  0
LTYPE
  5
70
330
5
100
AcDbSymbolTableRecord
100
AcDbLinetypeTableRecord
  2
CENTER
 70
     0
  3
Center ____ _ ____ _ ____ _ ____ _ ____ _ ____
 72
    65
 73
     4
 40
10.16
 49
6.35
 74
     0
 49
-1.27
 74
     0
 49
1.27
 74
     0
 49
-1.27
 74
     0
  0
LTYPE
  5
71
330
5
100
AcDbSymbolTableRecord
100
AcDbLinetypeTableRecord
  2
CENTERX2
 70
     0
  3
Center (2x) ________  __  ________  __  _____
 72
    65
 73
     4
 40
20.32
 49
12.7
 74
     0
 49
-2.54
 74
     0
 49
2.54
 74
     0
 49
-2.54
 74
     0
  0
LTYPE
  5
72
330
5
100
AcDbSymbolTableRecord
100
AcDbLinetypeTableRecord
  2
DOT2
 70
     0
  3
Dot (.5x) ........................................
 72
    65
 73
     2
 40
0.635
 49
0.0
 74
     0
 49
-0.635
 74
     0
  0
ENDTAB
  0
TABLE
  2
LAYER
  5
2
330
0
100
AcDbSymbolTable
 70
     1
  0
LAYER
  5
10
330
2
100
AcDbSymbolTableRecord
100
AcDbLayerTableRecord
  2
0
 70
     0
 62
     7
  6
Continuous
370
    -3
390
F
  0
ENDTAB
  0
TABLE
  2
STYLE
  5
3
330
0
100
AcDbSymbolTable
 70
     1
  0
STYLE
  5
11
330
3
100
AcDbSymbolTableRecord
100
AcDbTextStyleTableRecord
  2
Standard
 70
     0
 40
0.0
 41
1.0
 50
0.0
 71
     0
 42
3.5
  3
txt
  4

  0
ENDTAB
  0
TABLE
  2
VIEW
  5
6
330
0
100
AcDbSymbolTable
 70
     0
  0
ENDTAB
  0
TABLE
  2
UCS
  5
7
330
0
100
AcDbSymbolTable
 70
     0
  0
ENDTAB
  0
TABLE
  2
APPID
  5
9
330
0
100
AcDbSymbolTable
 70
     1
  0
APPID
  5
12
330
9
100
AcDbSymbolTableRecord
100
AcDbRegAppTableRecord
  2
ACAD
 70
     0
  0
ENDTAB
  0
TABLE
  2
DIMSTYLE
  5
A
330
0
100
AcDbSymbolTable
 70
     1
100
AcDbDimStyleTable
  0
DIMSTYLE
105
27
330
A
100
AcDbSymbolTableRecord
100
AcDbDimStyleTableRecord
  2
ISO-25
 70
     0
 41
2.5
 42
0.625
 43
3.75
 44
1.25
 73
     0
 74
     0
 77
     1
 78
     8
140
2.5
141
2.5
143
0.0393700787
147
0.625
171
     3
172
     1
178
     0
271
     2
272
     2
274
     3
278
    44
283
     0
284
     8
340
11
  0
ENDTAB
  0
TABLE
  2
BLOCK_RECORD
  5
1
330
0
100
AcDbSymbolTable
 70
     1
  0
BLOCK_RECORD
  5
1F
330
1
100
AcDbSymbolTableRecord
100
AcDbBlockTableRecord
  2
*Model_Space
340
22
  0
BLOCK_RECORD
  5
1B
330
1
100
AcDbSymbolTableRecord
100
AcDbBlockTableRecord
  2
*Paper_Space
340
1E
  0
BLOCK_RECORD
  5
23
330
1
100
AcDbSymbolTableRecord
100
AcDbBlockTableRecord
  2
*Paper_Space0
340
26
  0
ENDTAB
  0
ENDSEC
  0
SECTION
  2
BLOCKS
  0
BLOCK
  5
20
330
1F
100
AcDbEntity
  8
0
100
AcDbBlockBegin
  2
*Model_Space
 70
     0
 10
0.0
 20
0.0
 30
0.0
  3
*Model_Space
  1

  0
ENDBLK
  5
21
330
1F
100
AcDbEntity
  8
0
100
AcDbBlockEnd
  0
BLOCK
  5
1C
330
1B
100
AcDbEntity
 67
     1
  8
0
100
AcDbBlockBegin
  2
*Paper_Space
 70
     0
 10
0.0
 20
0.0
 30
0.0
  3
*Paper_Space
  1

  0
ENDBLK
  5
1D
330
1B
100
AcDbEntity
 67
     1
  8
0
100
AcDbBlockEnd
  0
BLOCK
  5
24
330
23
100
AcDbEntity
  8
0
100
AcDbBlockBegin
  2
*Paper_Space0
 70
     0
 10
0.0
 20
0.0
 30
0.0
  3
*Paper_Space0
  1

  0
ENDBLK
  5
25
330
23
100
AcDbEntity
  8
0
100
AcDbBlockEnd
  0
ENDSEC
  0
SECTION
  2
ENTITIES
  0
LINE
  5
73
330
1F
100
AcDbEntity
  8
0
  6
Continuous
 62
     7
370
    15
100
AcDbLine
 10
139.0051840137
 20
501.1391477105
 30
0.0
 11
136.0051928352
 21
501.1391477105
 31
0.0
  0
LINE
  5
74
330
1F
100
AcDbEntity
  8
0
  6
Continuous
 62
     7
370
    15
100
AcDbLine
 10
136.0051928352
 20
501.1391477105
 30
0.0
 11
136.0051928352
 21
497.6391555187
 31
0.0
  0
LINE
  5
75
330
1F
100
AcDbEntity
  8
0
  6
Continuous
 62
     7
370
    15
100
AcDbLine
 10
136.0051928352
 20
497.6391555187
 30
0.0
 11
132.5051931928
 21
497.6391555187
 31
0.0
  0
LINE
  5
76
330
1F
100
AcDbEntity
  8
0
  6
Continuous
 62
     7
370
    15
100
AcDbLine
 10
132.5051931928
 20
497.6391555187
 30
0.0
 11
132.5051931928
 21
494.6391568896
 31
0.0
  0
LINE
  5
77
330
1F
100
AcDbEntity
  8
0
  6
Continuous
 62
     7
370
    15
100
AcDbLine
 10
132.5051931928
 20
494.6391568896
 30
0.0
 11
136.0051928352
 21
494.6391568896
 31
0.0
  0
LINE
  5
78
330
1F
100
AcDbEntity
  8
0
  6
Continuous
 62
     7
370
    15
100
AcDbLine
 10
136.0051928352
 20
494.6391568896
 30
0.0
 11
136.0051928352
 21
491.1391497967
 31
0.0
  0
LINE
  5
79
330
1F
100
AcDbEntity
  8
0
  6
Continuous
 62
     7
370
    15
100
AcDbLine
 10
136.0051928352
 20
491.1391497967
 30
0.0
 11
139.0051840137
 21
491.1391497967
 31
0.0
  0
LINE
  5
7A
330
1F
100
AcDbEntity
  8
0
  6
Continuous
 62
     7
370
    15
100
AcDbLine
 10
139.0051840137
 20
491.1391497967
 30
0.0
 11
139.0051840137
 21
494.6391568896
 31
0.0
  0
LINE
  5
7B
330
1F
100
AcDbEntity
  8
0
  6
Continuous
 62
     7
370
    15
100
AcDbLine
 10
139.0051840137
 20
494.6391568896
 30
0.0
 11
142.5051985572
 21
494.6391568896
 31
0.0
  0
LINE
  5
7C
330
1F
100
AcDbEntity
  8
0
  6
Continuous
 62
     7
370
    15
100
AcDbLine
 10
142.5051985572
 20
494.6391568896
 30
0.0
 11
142.5051985572
 21
497.6391555187
 31
0.0
  0
LINE
  5
7D
330
1F
100
AcDbEntity
  8
0
  6
Continuous
 62
     7
370
    15
100
AcDbLine
 10
142.5051985572
 20
497.6391555187
 30
0.0
 11
139.0051989148
 21
497.6391555187
 31
0.0
  0
LINE
  5
7E
330
1F
100
AcDbEntity
  8
0
  6
Continuous
 62
     7
370
    15
100
AcDbLine
 10
139.0051989148
 20
497.6391555187
 30
0.0
 11
139.0051840137
 21
501.1391477105
 31
0.0
  0
LINE
  5
7F
330
1F
100
AcDbEntity
  8
0
  6
Continuous
 62
     7
370
    15
100
AcDbLine
 10
105.5051906298
 20
501.1391477105
 30
0.0
 11
102.5051920007
 21
501.1391477105
 31
0.0
  0
LINE
  5
80
330
1F
100
AcDbEntity
  8
0
  6
Continuous
 62
     7
370
    15
100
AcDbLine
 10
102.5051920007
 20
501.1391477105
 30
0.0
 11
102.5051920007
 21
497.6391555187
 31
0.0
  0
LINE
  5
81
330
1F
100
AcDbEntity
  8
0
  6
Continuous
 62
     7
370
    15
100
AcDbLine
 10
102.5051920007
 20
497.6391555187
 30
0.0
 11
99.0051923583
 21
497.6391555187
 31
0.0
  0
LINE
  5
82
330
1F
100
AcDbEntity
  8
0
  6
Continuous
 62
     7
370
    15
100
AcDbLine
 10
99.0051923583
 20
497.6391555187
 30
0.0
 11
99.0051923583
 21
494.6391568896
 31
0.0
  0
LINE
  5
83
330
1F
100
AcDbEntity
  8
0
  6
Continuous
 62
     7
370
    15
100
AcDbLine
 10
99.0051923583
 20
494.6391568896
 30
0.0
 11
102.5051920007
 21
494.6391568896
 31
0.0
  0
LINE
  5
84
330
1F
100
AcDbEntity
  8
0
  6
Continuous
 62
     7
370
    15
100
AcDbLine
 10
102.5051920007
 20
494.6391568896
 30
0.0
 11
102.5051920007
 21
491.1391497967
 31
0.0
  0
LINE
  5
85
330
1F
100
AcDbEntity
  8
0
  6
Continuous
 62
     7
370
    15
100
AcDbLine
 10
102.5051920007
 20
491.1391497967
 30
0.0
 11
105.5051906298
 21
491.1391497967
 31
0.0
  0
LINE
  5
86
330
1F
100
AcDbEntity
  8
0
  6
Continuous
 62
     7
370
    15
100
AcDbLine
 10
105.5051906298
 20
491.1391497967
 30
0.0
 11
105.5051906298
 21
494.6391568896
 31
0.0
  0
LINE
  5
87
330
1F
100
AcDbEntity
  8
0
  6
Continuous
 62
     7
370
    15
100
AcDbLine
 10
105.5051906298
 20
494.6391568896
 30
0.0
 11
109.0051977227
 21
494.6391568896
 31
0.0
  0
LINE
  5
88
330
1F
100
AcDbEntity
  8
0
  6
Continuous
 62
     7
370
    15
100
AcDbLine
 10
109.0051977227
 20
494.6391568896
 30
0.0
 11
109.0051977227
 21
497.6391555187
 31
0.0
  0
LINE
  5
89
330
1F
100
AcDbEntity
  8
0
  6
Continuous
 62
     7
370
    15
100
AcDbLine
 10
109.0051977227
 20
497.6391555187
 30
0.0
 11
105.5051906298
 21
497.6391555187
 31
0.0
  0
LINE
  5
8A
330
1F
100
AcDbEntity
  8
0
  6
Continuous
 62
     7
370
    15
100
AcDbLine
 10
105.5051906298
 20
497.6391555187
 30
0.0
 11
105.5051906298
 21
501.1391477105
 31
0.0
  0
LINE
  5
8B
330
1F
100
AcDbEntity
  8
0
  6
Continuous
 62
     7
370
    15
100
AcDbLine
 10
72.0051897953
 20
501.1391477105
 30
0.0
 11
69.0051911662
 21
501.1391477105
 31
0.0
  0
LINE
  5
8C
330
1F
100
AcDbEntity
  8
0
  6
Continuous
 62
     7
370
    15
100
AcDbLine
 10
69.0051911662
 20
501.1391477105
 30
0.0
 11
69.0051911662
 21
497.6391555187
 31
0.0
  0
LINE
  5
8D
330
1F
100
AcDbEntity
  8
0
  6
Continuous
 62
     7
370
    15
100
AcDbLine
 10
69.0051911662
 20
497.6391555187
 30
0.0
 11
65.5051915239
 21
497.6391555187
 31
0.0
  0
LINE
  5
8E
330
1F
100
AcDbEntity
  8
0
  6
Continuous
 62
     7
370
    15
100
AcDbLine
 10
65.5051915239
 20
497.6391555187
 30
0.0
 11
65.5051915239
 21
494.6391568896
 31
0.0
  0
LINE
  5
8F
330
1F
100
AcDbEntity
  8
0
  6
Continuous
 62
     7
370
    15
100
AcDbLine
 10
65.5051915239
 20
494.6391568896
 30
0.0
 11
69.0051911662
 21
494.6391568896
 31
0.0
  0
LINE
  5
90
330
1F
100
AcDbEntity
  8
0
  6
Continuous
 62
     7
370
    15
100
AcDbLine
 10
69.0051911662
 20
494.6391568896
 30
0.0
 11
69.0051911662
 21
491.1391497967
 31
0.0
  0
LINE
  5
91
330
1F
100
AcDbEntity
  8
0
  6
Continuous
 62
     7
370
    15
100
AcDbLine
 10
69.0051911662
 20
491.1391497967
 30
0.0
 11
72.0051897953
 21
491.1391497967
 31
0.0
  0
LINE
  5
92
330
1F
100
AcDbEntity
  8
0
  6
Continuous
 62
     7
370
    15
100
AcDbLine
 10
72.0051897953
 20
491.1391497967
 30
0.0
 11
72.0051897953
 21
494.6391568896
 31
0.0
  0
LINE
  5
93
330
1F
100
AcDbEntity
  8
0
  6
Continuous
 62
     7
370
    15
100
AcDbLine
 10
72.0051897953
 20
494.6391568896
 30
0.0
 11
75.5051968883
 21
494.6391568896
 31
0.0
  0
LINE
  5
94
330
1F
100
AcDbEntity
  8
0
  6
Continuous
 62
     7
370
    15
100
AcDbLine
 10
75.5051968883
 20
494.6391568896
 30
0.0
 11
75.5051968883
 21
497.6391555187
 31
0.0
  0
LINE
  5
95
330
1F
100
AcDbEntity
  8
0
  6
Continuous
 62
     7
370
    15
100
AcDbLine
 10
75.5051968883
 20
497.6391555187
 30
0.0
 11
72.0051897953
 21
497.6391555187
 31
0.0
  0
LINE
  5
96
330
1F
100
AcDbEntity
  8
0
  6
Continuous
 62
     7
370
    15
100
AcDbLine
 10
72.0051897953
 20
497.6391555187
 30
0.0
 11
72.0051897953
 21
501.1391477105
 31
0.0
  0
LINE
  5
97
330
1F
100
AcDbEntity
  8
0
  6
Continuous
 62
     7
370
    15
100
AcDbLine
 10
35.5051940571
 20
494.6391568896
 30
0.0
 11
35.5051903318
 21
491.1391497967
 31
0.0
  0
LINE
  5
98
330
1F
100
AcDbEntity
  8
0
  6
Continuous
 62
     7
370
    15
100
AcDbLine
 10
35.5051903318
 20
491.1391497967
 30
0.0
 11
38.5051889609
 21
491.1391497967
 31
0.0
  0
LINE
  5
99
330
1F
100
AcDbEntity
  8
0
  6
Continuous
 62
     7
370
    15
100
AcDbLine
 10
38.5051889609
 20
491.1391497967
 30
0.0
 11
38.5051889609
 21
494.6391568896
 31
0.0
  0
LINE
  5
9A
330
1F
100
AcDbEntity
  8
0
  6
Continuous
 62
     7
370
    15
100
AcDbLine
 10
38.5051889609
 20
494.6391568896
 30
0.0
 11
42.0051960538
 21
494.6391568896
 31
0.0
  0
LINE
  5
9B
330
1F
100
AcDbEntity
  8
0
  6
Continuous
 62
     7
370
    15
100
AcDbLine
 10
42.0051960538
 20
494.6391568896
 30
0.0
 11
42.0051960538
 21
497.6391555187
 31
0.0
  0
LINE
  5
9C
330
1F
100
AcDbEntity
  8
0
  6
Continuous
 62
     7
370
    15
100
AcDbLine
 10
42.0051960538
 20
497.6391555187
 30
0.0
 11
38.5051926862
 21
497.6391555187
 31
0.0
  0
LINE
  5
9D
330
1F
100
AcDbEntity
  8
0
  6
Continuous
 62
     7
370
    15
100
AcDbLine
 10
38.5051926862
 20
497.6391555187
 30
0.0
 11
38.5051889609
 21
501.1391477105
 31
0.0
  0
LINE
  5
9E
330
1F
100
AcDbEntity
  8
0
  6
Continuous
 62
     7
370
    15
100
AcDbLine
 10
38.5051889609
 20
501.1391477105
 30
0.0
 11
35.5051903318
 21
501.1391477105
 31
0.0
  0
LINE
  5
9F
330
1F
100
AcDbEntity
  8
0
  6
Continuous
 62
     7
370
    15
100
AcDbLine
 10
35.5051903318
 20
501.1391477105
 30
0.0
 11
35.5051903318
 21
497.6391555187
 31
0.0
  0
LINE
  5
A0
330
1F
100
AcDbEntity
  8
0
  6
Continuous
 62
     7
370
    15
100
AcDbLine
 10
35.5051903318
 20
497.6391555187
 30
0.0
 11
32.0051944147
 21
497.6391555187
 31
0.0
  0
LINE
  5
A1
330
1F
100
AcDbEntity
  8
0
  6
Continuous
 62
     7
370
    15
100
AcDbLine
 10
32.0051944147
 20
497.6391555187
 30
0.0
 11
32.0051944147
 21
494.6391568896
 31
0.0
  0
LINE
  5
A2
330
1F
100
AcDbEntity
  8
0
  6
Continuous
 62
     7
370
    15
100
AcDbLine
 10
32.0051944147
 20
494.6391568896
 30
0.0
 11
35.5051940571
 21
494.6391568896
 31
0.0
  0
LINE
  5
A3
330
1F
100
AcDbEntity
  8
0
  6
Continuous
 62
     7
370
    15
100
AcDbLine
 10
152.5051890205
 20
595.1391505455
 30
0.0
 11
152.5051890205
 21
598.1391505716
 31
0.0
  0
LINE
  5
A4
330
1F
100
AcDbEntity
  8
0
  6
Continuous
 62
     7
370
    15
100
AcDbLine
 10
169.5051936696
 20
595.1391505455
 30
0.0
 11
152.5051890205
 21
595.1391505455
 31
0.0
  0
LINE
  5
A5
330
1F
100
AcDbEntity
  8
0
  6
Continuous
 62
     7
370
    15
100
AcDbLine
 10
169.5051936696
 20
578.1391510186
 30
0.0
 11
169.5051936696
 21
595.1391505455
 31
0.0
  0
LINE
  5
A6
330
1F
100
AcDbEntity
  8
0
  6
Continuous
 62
     7
370
    15
100
AcDbLine
 10
172.5051848481
 20
578.1391510186
 30
0.0
 11
169.5051936696
 21
578.1391510186
 31
0.0
  0
LINE
  5
A7
330
1F
100
AcDbEntity
  8
0
  6
Continuous
 62
     7
370
    15
100
AcDbLine
 10
172.5051848481
 20
397.6391540286
 30
0.0
 11
172.5051848481
 21
578.1391510186
 31
0.0
  0
LINE
  5
A8
330
1F
100
AcDbEntity
  8
0
  6
Continuous
 62
     7
370
    15
100
AcDbLine
 10
169.5051936696
 20
397.6391540286
 30
0.0
 11
172.5051848481
 21
397.6391540286
 31
0.0
  0
LINE
  5
A9
330
1F
100
AcDbEntity
  8
0
  6
Continuous
 62
     7
370
    15
100
AcDbLine
 10
169.5051936696
 20
380.6391493795
 30
0.0
 11
169.5051936696
 21
397.6391540286
 31
0.0
  0
LINE
  5
AA
330
1F
100
AcDbEntity
  8
0
  6
Continuous
 62
     7
370
    15
100
AcDbLine
 10
152.5051890205
 20
380.6391493795
 30
0.0
 11
169.5051936696
 21
380.6391493795
 31
0.0
  0
LINE
  5
AB
330
1F
100
AcDbEntity
  8
0
  6
Continuous
 62
     7
370
    15
100
AcDbLine
 10
152.5051890205
 20
377.6391432998
 30
0.0
 11
152.5051890205
 21
380.6391493795
 31
0.0
  0
LINE
  5
AC
330
1F
100
AcDbEntity
  8
0
  6
Continuous
 62
     7
370
    15
100
AcDbLine
 10
22.0051890503
 20
377.6391432998
 30
0.0
 11
152.5051890205
 21
377.6391432998
 31
0.0
  0
LINE
  5
AD
330
1F
100
AcDbEntity
  8
0
  6
Continuous
 62
     7
370
    15
100
AcDbLine
 10
22.0051890503
 20
380.6391493795
 30
0.0
 11
22.0051890503
 21
377.6391432998
 31
0.0
  0
LINE
  5
AE
330
1F
100
AcDbEntity
  8
0
  6
Continuous
 62
     7
370
    15
100
AcDbLine
 10
5.0051895234
 20
380.6391493795
 30
0.0
 11
22.0051890503
 21
380.6391493795
 31
0.0
  0
LINE
  5
AF
330
1F
100
AcDbEntity
  8
0
  6
Continuous
 62
     7
370
    15
100
AcDbLine
 10
5.0051895234
 20
397.6391540286
 30
0.0
 11
5.0051895234
 21
380.6391493795
 31
0.0
  0
LINE
  5
B0
330
1F
100
AcDbEntity
  8
0
  6
Continuous
 62
     7
370
    15
100
AcDbLine
 10
2.0051894973
 20
397.6391540286
 30
0.0
 11
5.0051895234
 21
397.6391540286
 31
0.0
  0
LINE
  5
B1
330
1F
100
AcDbEntity
  8
0
  6
Continuous
 62
     7
370
    15
100
AcDbLine
 10
2.0051894973
 20
578.1391510186
 30
0.0
 11
2.0051894973
 21
397.6391540286
 31
0.0
  0
LINE
  5
B2
330
1F
100
AcDbEntity
  8
0
  6
Continuous
 62
     7
370
    15
100
AcDbLine
 10
5.0051895234
 20
578.1391510186
 30
0.0
 11
2.0051894973
 21
578.1391510186
 31
0.0
  0
LINE
  5
B3
330
1F
100
AcDbEntity
  8
0
  6
Continuous
 62
     7
370
    15
100
AcDbLine
 10
5.0051895234
 20
595.1391505455
 30
0.0
 11
5.0051895234
 21
578.1391510186
 31
0.0
  0
LINE
  5
B4
330
1F
100
AcDbEntity
  8
0
  6
Continuous
 62
     7
370
    15
100
AcDbLine
 10
22.0051890503
 20
595.1391505455
 30
0.0
 11
5.0051895234
 21
595.1391505455
 31
0.0
  0
LINE
  5
B5
330
1F
100
AcDbEntity
  8
0
  6
Continuous
 62
     7
370
    15
100
AcDbLine
 10
22.0051890503
 20
598.1391505716
 30
0.0
 11
22.0051890503
 21
595.1391505455
 31
0.0
  0
LINE
  5
B6
330
1F
100
AcDbEntity
  8
0
  6
Continuous
 62
     7
370
    15
100
AcDbLine
 10
152.5051890205
 20
598.1391505716
 30
0.0
 11
22.0051890503
 21
598.1391505716
 31
0.0
  0
LINE
  5
B7
330
1F
100
AcDbEntity
  8
0
  6
Continuous
 62
     7
370
    15
100
AcDbLine
 10
312.2933931226
 20
501.1391477105
 30
0.0
 11
309.2934019441
 21
501.1391477105
 31
0.0
  0
LINE
  5
B8
330
1F
100
AcDbEntity
  8
0
  6
Continuous
 62
     7
370
    15
100
AcDbLine
 10
309.2934019441
 20
501.1391477105
 30
0.0
 11
309.2934019441
 21
497.6391555187
 31
0.0
  0
LINE
  5
B9
330
1F
100
AcDbEntity
  8
0
  6
Continuous
 62
     7
370
    15
100
AcDbLine
 10
309.2934019441
 20
497.6391555187
 30
0.0
 11
305.7934023017
 21
497.6391555187
 31
0.0
  0
LINE
  5
BA
330
1F
100
AcDbEntity
  8
0
  6
Continuous
 62
     7
370
    15
100
AcDbLine
 10
305.7934023017
 20
497.6391555187
 30
0.0
 11
305.7934023017
 21
494.6391568896
 31
0.0
  0
LINE
  5
BB
330
1F
100
AcDbEntity
  8
0
  6
Continuous
 62
     7
370
    15
100
AcDbLine
 10
305.7934023017
 20
494.6391568896
 30
0.0
 11
309.2934019441
 21
494.6391568896
 31
0.0
  0
LINE
  5
BC
330
1F
100
AcDbEntity
  8
0
  6
Continuous
 62
     7
370
    15
100
AcDbLine
 10
309.2934019441
 20
494.6391568896
 30
0.0
 11
309.2934019441
 21
491.1391497967
 31
0.0
  0
LINE
  5
BD
330
1F
100
AcDbEntity
  8
0
  6
Continuous
 62
     7
370
    15
100
AcDbLine
 10
309.2934019441
 20
491.1391497967
 30
0.0
 11
312.2933931226
 21
491.1391497967
 31
0.0
  0
LINE
  5
BE
330
1F
100
AcDbEntity
  8
0
  6
Continuous
 62
     7
370
    15
100
AcDbLine
 10
312.2933931226
 20
491.1391497967
 30
0.0
 11
312.2933931226
 21
494.6391568896
 31
0.0
  0
LINE
  5
BF
330
1F
100
AcDbEntity
  8
0
  6
Continuous
 62
     7
370
    15
100
AcDbLine
 10
312.2933931226
 20
494.6391568896
 30
0.0
 11
315.7934076661
 21
494.6391568896
 31
0.0
  0
LINE
  5
C0
330
1F
100
AcDbEntity
  8
0
  6
Continuous
 62
     7
370
    15
100
AcDbLine
 10
315.7934076661
 20
494.6391568896
 30
0.0
 11
315.7934076661
 21
497.6391555187
 31
0.0
  0
LINE
  5
C1
330
1F
100
AcDbEntity
  8
0
  6
Continuous
 62
     7
370
    15
100
AcDbLine
 10
315.7934076661
 20
497.6391555187
 30
0.0
 11
312.2934080238
 21
497.6391555187
 31
0.0
  0
LINE
  5
C2
330
1F
100
AcDbEntity
  8
0
  6
Continuous
 62
     7
370
    15
100
AcDbLine
 10
312.2934080238
 20
497.6391555187
 30
0.0
 11
312.2933931226
 21
501.1391477105
 31
0.0
  0
LINE
  5
C3
330
1F
100
AcDbEntity
  8
0
  6
Continuous
 62
     7
370
    15
100
AcDbLine
 10
278.7933997387
 20
501.1391477105
 30
0.0
 11
275.7934011096
 21
501.1391477105
 31
0.0
  0
LINE
  5
C4
330
1F
100
AcDbEntity
  8
0
  6
Continuous
 62
     7
370
    15
100
AcDbLine
 10
275.7934011096
 20
501.1391477105
 30
0.0
 11
275.7934011096
 21
497.6391555187
 31
0.0
  0
LINE
  5
C5
330
1F
100
AcDbEntity
  8
0
  6
Continuous
 62
     7
370
    15
100
AcDbLine
 10
275.7934011096
 20
497.6391555187
 30
0.0
 11
272.2934014673
 21
497.6391555187
 31
0.0
  0
LINE
  5
C6
330
1F
100
AcDbEntity
  8
0
  6
Continuous
 62
     7
370
    15
100
AcDbLine
 10
272.2934014673
 20
497.6391555187
 30
0.0
 11
272.2934014673
 21
494.6391568896
 31
0.0
  0
LINE
  5
C7
330
1F
100
AcDbEntity
  8
0
  6
Continuous
 62
     7
370
    15
100
AcDbLine
 10
272.2934014673
 20
494.6391568896
 30
0.0
 11
275.7934011096
 21
494.6391568896
 31
0.0
  0
LINE
  5
C8
330
1F
100
AcDbEntity
  8
0
  6
Continuous
 62
     7
370
    15
100
AcDbLine
 10
275.7934011096
 20
494.6391568896
 30
0.0
 11
275.7934011096
 21
491.1391497967
 31
0.0
  0
LINE
  5
C9
330
1F
100
AcDbEntity
  8
0
  6
Continuous
 62
     7
370
    15
100
AcDbLine
 10
275.7934011096
 20
491.1391497967
 30
0.0
 11
278.7933997387
 21
491.1391497967
 31
0.0
  0
LINE
  5
CA
330
1F
100
AcDbEntity
  8
0
  6
Continuous
 62
     7
370
    15
100
AcDbLine
 10
278.7933997387
 20
491.1391497967
 30
0.0
 11
278.7933997387
 21
494.6391568896
 31
0.0
  0
LINE
  5
CB
330
1F
100
AcDbEntity
  8
0
  6
Continuous
 62
     7
370
    15
100
AcDbLine
 10
278.7933997387
 20
494.6391568896
 30
0.0
 11
282.2934068317
 21
494.6391568896
 31
0.0
  0
LINE
  5
CC
330
1F
100
AcDbEntity
  8
0
  6
Continuous
 62
     7
370
    15
100
AcDbLine
 10
282.2934068317
 20
494.6391568896
 30
0.0
 11
282.2934068317
 21
497.6391555187
 31
0.0
  0
LINE
  5
CD
330
1F
100
AcDbEntity
  8
0
  6
Continuous
 62
     7
370
    15
100
AcDbLine
 10
282.2934068317
 20
497.6391555187
 30
0.0
 11
278.7933997387
 21
497.6391555187
 31
0.0
  0
LINE
  5
CE
330
1F
100
AcDbEntity
  8
0
  6
Continuous
 62
     7
370
    15
100
AcDbLine
 10
278.7933997387
 20
497.6391555187
 30
0.0
 11
278.7933997387
 21
501.1391477105
 31
0.0
  0
LINE
  5
CF
330
1F
100
AcDbEntity
  8
0
  6
Continuous
 62
     7
370
    15
100
AcDbLine
 10
245.2933989043
 20
501.1391477105
 30
0.0
 11
242.2934002752
 21
501.1391477105
 31
0.0
  0
LINE
  5
D0
330
1F
100
AcDbEntity
  8
0
  6
Continuous
 62
     7
370
    15
100
AcDbLine
 10
242.2934002752
 20
501.1391477105
 30
0.0
 11
242.2934002752
 21
497.6391555187
 31
0.0
  0
LINE
  5
D1
330
1F
100
AcDbEntity
  8
0
  6
Continuous
 62
     7
370
    15
100
AcDbLine
 10
242.2934002752
 20
497.6391555187
 30
0.0
 11
238.7934006328
 21
497.6391555187
 31
0.0
  0
LINE
  5
D2
330
1F
100
AcDbEntity
  8
0
  6
Continuous
 62
     7
370
    15
100
AcDbLine
 10
238.7934006328
 20
497.6391555187
 30
0.0
 11
238.7934006328
 21
494.6391568896
 31
0.0
  0
LINE
  5
D3
330
1F
100
AcDbEntity
  8
0
  6
Continuous
 62
     7
370
    15
100
AcDbLine
 10
238.7934006328
 20
494.6391568896
 30
0.0
 11
242.2934002752
 21
494.6391568896
 31
0.0
  0
LINE
  5
D4
330
1F
100
AcDbEntity
  8
0
  6
Continuous
 62
     7
370
    15
100
AcDbLine
 10
242.2934002752
 20
494.6391568896
 30
0.0
 11
242.2934002752
 21
491.1391497967
 31
0.0
  0
LINE
  5
D5
330
1F
100
AcDbEntity
  8
0
  6
Continuous
 62
     7
370
    15
100
AcDbLine
 10
242.2934002752
 20
491.1391497967
 30
0.0
 11
245.2933989043
 21
491.1391497967
 31
0.0
  0
LINE
  5
D6
330
1F
100
AcDbEntity
  8
0
  6
Continuous
 62
     7
370
    15
100
AcDbLine
 10
245.2933989043
 20
491.1391497967
 30
0.0
 11
245.2933989043
 21
494.6391568896
 31
0.0
  0
LINE
  5
D7
330
1F
100
AcDbEntity
  8
0
  6
Continuous
 62
     7
370
    15
100
AcDbLine
 10
245.2933989043
 20
494.6391568896
 30
0.0
 11
248.7934059972
 21
494.6391568896
 31
0.0
  0
LINE
  5
D8
330
1F
100
AcDbEntity
  8
0
  6
Continuous
 62
     7
370
    15
100
AcDbLine
 10
248.7934059972
 20
494.6391568896
 30
0.0
 11
248.7934059972
 21
497.6391555187
 31
0.0
  0
LINE
  5
D9
330
1F
100
AcDbEntity
  8
0
  6
Continuous
 62
     7
370
    15
100
AcDbLine
 10
248.7934059972
 20
497.6391555187
 30
0.0
 11
245.2933989043
 21
497.6391555187
 31
0.0
  0
LINE
  5
DA
330
1F
100
AcDbEntity
  8
0
  6
Continuous
 62
     7
370
    15
100
AcDbLine
 10
245.2933989043
 20
497.6391555187
 30
0.0
 11
245.2933989043
 21
501.1391477105
 31
0.0
  0
LINE
  5
DB
330
1F
100
AcDbEntity
  8
0
  6
Continuous
 62
     7
370
    15
100
AcDbLine
 10
208.793403166
 20
494.6391568896
 30
0.0
 11
208.7933994407
 21
491.1391497967
 31
0.0
  0
LINE
  5
DC
330
1F
100
AcDbEntity
  8
0
  6
Continuous
 62
     7
370
    15
100
AcDbLine
 10
208.7933994407
 20
491.1391497967
 30
0.0
 11
211.7933980698
 21
491.1391497967
 31
0.0
  0
LINE
  5
DD
330
1F
100
AcDbEntity
  8
0
  6
Continuous
 62
     7
370
    15
100
AcDbLine
 10
211.7933980698
 20
491.1391497967
 30
0.0
 11
211.7933980698
 21
494.6391568896
 31
0.0
  0
LINE
  5
DE
330
1F
100
AcDbEntity
  8
0
  6
Continuous
 62
     7
370
    15
100
AcDbLine
 10
211.7933980698
 20
494.6391568896
 30
0.0
 11
215.2934051627
 21
494.6391568896
 31
0.0
  0
LINE
  5
DF
330
1F
100
AcDbEntity
  8
0
  6
Continuous
 62
     7
370
    15
100
AcDbLine
 10
215.2934051627
 20
494.6391568896
 30
0.0
 11
215.2934051627
 21
497.6391555187
 31
0.0
  0
LINE
  5
E0
330
1F
100
AcDbEntity
  8
0
  6
Continuous
 62
     7
370
    15
100
AcDbLine
 10
215.2934051627
 20
497.6391555187
 30
0.0
 11
211.7934017951
 21
497.6391555187
 31
0.0
  0
LINE
  5
E1
330
1F
100
AcDbEntity
  8
0
  6
Continuous
 62
     7
370
    15
100
AcDbLine
 10
211.7934017951
 20
497.6391555187
 30
0.0
 11
211.7933980698
 21
501.1391477105
 31
0.0
  0
LINE
  5
E2
330
1F
100
AcDbEntity
  8
0
  6
Continuous
 62
     7
370
    15
100
AcDbLine
 10
211.7933980698
 20
501.1391477105
 30
0.0
 11
208.7933994407
 21
501.1391477105
 31
0.0
  0
LINE
  5
E3
330
1F
100
AcDbEntity
  8
0
  6
Continuous
 62
     7
370
    15
100
AcDbLine
 10
208.7933994407
 20
501.1391477105
 30
0.0
 11
208.7933994407
 21
497.6391555187
 31
0.0
  0
LINE
  5
E4
330
1F
100
AcDbEntity
  8
0
  6
Continuous
 62
     7
370
    15
100
AcDbLine
 10
208.7933994407
 20
497.6391555187
 30
0.0
 11
205.2934035236
 21
497.6391555187
 31
0.0
  0
LINE
  5
E5
330
1F
100
AcDbEntity
  8
0
  6
Continuous
 62
     7
370
    15
100
AcDbLine
 10
205.2934035236
 20
497.6391555187
 30
0.0
 11
205.2934035236
 21
494.6391568896
 31
0.0
  0
LINE
  5
E6
330
1F
100
AcDbEntity
  8
0
  6
Continuous
 62
     7
370
    15
100
AcDbLine
 10
205.2934035236
 20
494.6391568896
 30
0.0
 11
208.793403166
 21
494.6391568896
 31
0.0
  0
LINE
  5
E7
330
1F
100
AcDbEntity
  8
0
  6
Continuous
 62
     7
370
    15
100
AcDbLine
 10
325.7933981294
 20
595.1391505455
 30
0.0
 11
325.7933981294
 21
598.1391505716
 31
0.0
  0
LINE
  5
E8
330
1F
100
AcDbEntity
  8
0
  6
Continuous
 62
     7
370
    15
100
AcDbLine
 10
342.7934027786
 20
595.1391505455
 30
0.0
 11
325.7933981294
 21
595.1391505455
 31
0.0
  0
LINE
  5
E9
330
1F
100
AcDbEntity
  8
0
  6
Continuous
 62
     7
370
    15
100
AcDbLine
 10
342.7934027786
 20
578.1391510186
 30
0.0
 11
342.7934027786
 21
595.1391505455
 31
0.0
  0
LINE
  5
EA
330
1F
100
AcDbEntity
  8
0
  6
Continuous
 62
     7
370
    15
100
AcDbLine
 10
345.7933939571
 20
578.1391510186
 30
0.0
 11
342.7934027786
 21
578.1391510186
 31
0.0
  0
LINE
  5
EB
330
1F
100
AcDbEntity
  8
0
  6
Continuous
 62
     7
370
    15
100
AcDbLine
 10
345.7933939571
 20
397.6391540286
 30
0.0
 11
345.7933939571
 21
578.1391510186
 31
0.0
  0
LINE
  5
EC
330
1F
100
AcDbEntity
  8
0
  6
Continuous
 62
     7
370
    15
100
AcDbLine
 10
342.7934027786
 20
397.6391540286
 30
0.0
 11
345.7933939571
 21
397.6391540286
 31
0.0
  0
LINE
  5
ED
330
1F
100
AcDbEntity
  8
0
  6
Continuous
 62
     7
370
    15
100
AcDbLine
 10
342.7934027786
 20
380.6391493795
 30
0.0
 11
342.7934027786
 21
397.6391540286
 31
0.0
  0
LINE
  5
EE
330
1F
100
AcDbEntity
  8
0
  6
Continuous
 62
     7
370
    15
100
AcDbLine
 10
325.7933981294
 20
380.6391493795
 30
0.0
 11
342.7934027786
 21
380.6391493795
 31
0.0
  0
LINE
  5
EF
330
1F
100
AcDbEntity
  8
0
  6
Continuous
 62
     7
370
    15
100
AcDbLine
 10
325.7933981294
 20
377.6391432998
 30
0.0
 11
325.7933981294
 21
380.6391493795
 31
0.0
  0
LINE
  5
F0
330
1F
100
AcDbEntity
  8
0
  6
Continuous
 62
     7
370
    15
100
AcDbLine
 10
195.2933981592
 20
377.6391432998
 30
0.0
 11
325.7933981294
 21
377.6391432998
 31
0.0
  0
LINE
  5
F1
330
1F
100
AcDbEntity
  8
0
  6
Continuous
 62
     7
370
    15
100
AcDbLine
 10
195.2933981592
 20
380.6391493795
 30
0.0
 11
195.2933981592
 21
377.6391432998
 31
0.0
  0
LINE
  5
F2
330
1F
100
AcDbEntity
  8
0
  6
Continuous
 62
     7
370
    15
100
AcDbLine
 10
178.2933986323
 20
380.6391493795
 30
0.0
 11
195.2933981592
 21
380.6391493795
 31
0.0
  0
LINE
  5
F3
330
1F
100
AcDbEntity
  8
0
  6
Continuous
 62
     7
370
    15
100
AcDbLine
 10
178.2933986323
 20
397.6391540286
 30
0.0
 11
178.2933986323
 21
380.6391493795
 31
0.0
  0
LINE
  5
F4
330
1F
100
AcDbEntity
  8
0
  6
Continuous
 62
     7
370
    15
100
AcDbLine
 10
175.2933986062
 20
397.6391540286
 30
0.0
 11
178.2933986323
 21
397.6391540286
 31
0.0
  0
LINE
  5
F5
330
1F
100
AcDbEntity
  8
0
  6
Continuous
 62
     7
370
    15
100
AcDbLine
 10
175.2933986062
 20
578.1391510186
 30
0.0
 11
175.2933986062
 21
397.6391540286
 31
0.0
  0
LINE
  5
F6
330
1F
100
AcDbEntity
  8
0
  6
Continuous
 62
     7
370
    15
100
AcDbLine
 10
178.2933986323
 20
578.1391510186
 30
0.0
 11
175.2933986062
 21
578.1391510186
 31
0.0
  0
LINE
  5
F7
330
1F
100
AcDbEntity
  8
0
  6
Continuous
 62
     7
370
    15
100
AcDbLine
 10
178.2933986323
 20
595.1391505455
 30
0.0
 11
178.2933986323
 21
578.1391510186
 31
0.0
  0
LINE
  5
F8
330
1F
100
AcDbEntity
  8
0
  6
Continuous
 62
     7
370
    15
100
AcDbLine
 10
195.2933981592
 20
595.1391505455
 30
0.0
 11
178.2933986323
 21
595.1391505455
 31
0.0
  0
LINE
  5
F9
330
1F
100
AcDbEntity
  8
0
  6
Continuous
 62
     7
370
    15
100
AcDbLine
 10
195.2933981592
 20
598.1391505716
 30
0.0
 11
195.2933981592
 21
595.1391505455
 31
0.0
  0
LINE
  5
FA
330
1F
100
AcDbEntity
  8
0
  6
Continuous
 62
     7
370
    15
100
AcDbLine
 10
325.7933981294
 20
598.1391505716
 30
0.0
 11
195.2933981592
 21
598.1391505716
 31
0.0
  0
LINE
  5
FB
330
1F
100
AcDbEntity
  8
0
  6
Continuous
 62
     7
370
    15
100
AcDbLine
 10
485.4768851017
 20
501.1391477105
 30
0.0
 11
482.4768939231
 21
501.1391477105
 31
0.0
  0
LINE
  5
FC
330
1F
100
AcDbEntity
  8
0
  6
Continuous
 62
     7
370
    15
100
AcDbLine
 10
482.4768939231
 20
501.1391477105
 30
0.0
 11
482.4768939231
 21
497.6391555187
 31
0.0
  0
LINE
  5
FD
330
1F
100
AcDbEntity
  8
0
  6
Continuous
 62
     7
370
    15
100
AcDbLine
 10
482.4768939231
 20
497.6391555187
 30
0.0
 11
478.9768942808
 21
497.6391555187
 31
0.0
  0
LINE
  5
FE
330
1F
100
AcDbEntity
  8
0
  6
Continuous
 62
     7
370
    15
100
AcDbLine
 10
478.9768942808
 20
497.6391555187
 30
0.0
 11
478.9768942808
 21
494.6391568896
 31
0.0
  0
LINE
  5
FF
330
1F
100
AcDbEntity
  8
0
  6
Continuous
 62
     7
370
    15
100
AcDbLine
 10
478.9768942808
 20
494.6391568896
 30
0.0
 11
482.4768939231
 21
494.6391568896
 31
0.0
  0
LINE
  5
100
330
1F
100
AcDbEntity
  8
0
  6
Continuous
 62
     7
370
    15
100
AcDbLine
 10
482.4768939231
 20
494.6391568896
 30
0.0
 11
482.4768939231
 21
491.1391497967
 31
0.0
  0
LINE
  5
101
330
1F
100
AcDbEntity
  8
0
  6
Continuous
 62
     7
370
    15
100
AcDbLine
 10
482.4768939231
 20
491.1391497967
 30
0.0
 11
485.4768851017
 21
491.1391497967
 31
0.0
  0
LINE
  5
102
330
1F
100
AcDbEntity
  8
0
  6
Continuous
 62
     7
370
    15
100
AcDbLine
 10
485.4768851017
 20
491.1391497967
 30
0.0
 11
485.4768851017
 21
494.6391568896
 31
0.0
  0
LINE
  5
103
330
1F
100
AcDbEntity
  8
0
  6
Continuous
 62
     7
370
    15
100
AcDbLine
 10
485.4768851017
 20
494.6391568896
 30
0.0
 11
488.9768996452
 21
494.6391568896
 31
0.0
  0
LINE
  5
104
330
1F
100
AcDbEntity
  8
0
  6
Continuous
 62
     7
370
    15
100
AcDbLine
 10
488.9768996452
 20
494.6391568896
 30
0.0
 11
488.9768996452
 21
497.6391555187
 31
0.0
  0
LINE
  5
105
330
1F
100
AcDbEntity
  8
0
  6
Continuous
 62
     7
370
    15
100
AcDbLine
 10
488.9768996452
 20
497.6391555187
 30
0.0
 11
485.4769000028
 21
497.6391555187
 31
0.0
  0
LINE
  5
106
330
1F
100
AcDbEntity
  8
0
  6
Continuous
 62
     7
370
    15
100
AcDbLine
 10
485.4769000028
 20
497.6391555187
 30
0.0
 11
485.4768851017
 21
501.1391477105
 31
0.0
  0
LINE
  5
107
330
1F
100
AcDbEntity
  8
0
  6
Continuous
 62
     7
370
    15
100
AcDbLine
 10
451.9768917178
 20
501.1391477105
 30
0.0
 11
448.9768930887
 21
501.1391477105
 31
0.0
  0
LINE
  5
108
330
1F
100
AcDbEntity
  8
0
  6
Continuous
 62
     7
370
    15
100
AcDbLine
 10
448.9768930887
 20
501.1391477105
 30
0.0
 11
448.9768930887
 21
497.6391555187
 31
0.0
  0
LINE
  5
109
330
1F
100
AcDbEntity
  8
0
  6
Continuous
 62
     7
370
    15
100
AcDbLine
 10
448.9768930887
 20
497.6391555187
 30
0.0
 11
445.4768934463
 21
497.6391555187
 31
0.0
  0
LINE
  5
10A
330
1F
100
AcDbEntity
  8
0
  6
Continuous
 62
     7
370
    15
100
AcDbLine
 10
445.4768934463
 20
497.6391555187
 30
0.0
 11
445.4768934463
 21
494.6391568896
 31
0.0
  0
LINE
  5
10B
330
1F
100
AcDbEntity
  8
0
  6
Continuous
 62
     7
370
    15
100
AcDbLine
 10
445.4768934463
 20
494.6391568896
 30
0.0
 11
448.9768930887
 21
494.6391568896
 31
0.0
  0
LINE
  5
10C
330
1F
100
AcDbEntity
  8
0
  6
Continuous
 62
     7
370
    15
100
AcDbLine
 10
448.9768930887
 20
494.6391568896
 30
0.0
 11
448.9768930887
 21
491.1391497967
 31
0.0
  0
LINE
  5
10D
330
1F
100
AcDbEntity
  8
0
  6
Continuous
 62
     7
370
    15
100
AcDbLine
 10
448.9768930887
 20
491.1391497967
 30
0.0
 11
451.9768917178
 21
491.1391497967
 31
0.0
  0
LINE
  5
10E
330
1F
100
AcDbEntity
  8
0
  6
Continuous
 62
     7
370
    15
100
AcDbLine
 10
451.9768917178
 20
491.1391497967
 30
0.0
 11
451.9768917178
 21
494.6391568896
 31
0.0
  0
LINE
  5
10F
330
1F
100
AcDbEntity
  8
0
  6
Continuous
 62
     7
370
    15
100
AcDbLine
 10
451.9768917178
 20
494.6391568896
 30
0.0
 11
455.4768988107
 21
494.6391568896
 31
0.0
  0
LINE
  5
110
330
1F
100
AcDbEntity
  8
0
  6
Continuous
 62
     7
370
    15
100
AcDbLine
 10
455.4768988107
 20
494.6391568896
 30
0.0
 11
455.4768988107
 21
497.6391555187
 31
0.0
  0
LINE
  5
111
330
1F
100
AcDbEntity
  8
0
  6
Continuous
 62
     7
370
    15
100
AcDbLine
 10
455.4768988107
 20
497.6391555187
 30
0.0
 11
451.9768917178
 21
497.6391555187
 31
0.0
  0
LINE
  5
112
330
1F
100
AcDbEntity
  8
0
  6
Continuous
 62
     7
370
    15
100
AcDbLine
 10
451.9768917178
 20
497.6391555187
 30
0.0
 11
451.9768917178
 21
501.1391477105
 31
0.0
  0
LINE
  5
113
330
1F
100
AcDbEntity
  8
0
  6
Continuous
 62
     7
370
    15
100
AcDbLine
 10
418.4768908833
 20
501.1391477105
 30
0.0
 11
415.4768922542
 21
501.1391477105
 31
0.0
  0
LINE
  5
114
330
1F
100
AcDbEntity
  8
0
  6
Continuous
 62
     7
370
    15
100
AcDbLine
 10
415.4768922542
 20
501.1391477105
 30
0.0
 11
415.4768922542
 21
497.6391555187
 31
0.0
  0
LINE
  5
115
330
1F
100
AcDbEntity
  8
0
  6
Continuous
 62
     7
370
    15
100
AcDbLine
 10
415.4768922542
 20
497.6391555187
 30
0.0
 11
411.9768926118
 21
497.6391555187
 31
0.0
  0
LINE
  5
116
330
1F
100
AcDbEntity
  8
0
  6
Continuous
 62
     7
370
    15
100
AcDbLine
 10
411.9768926118
 20
497.6391555187
 30
0.0
 11
411.9768926118
 21
494.6391568896
 31
0.0
  0
LINE
  5
117
330
1F
100
AcDbEntity
  8
0
  6
Continuous
 62
     7
370
    15
100
AcDbLine
 10
411.9768926118
 20
494.6391568896
 30
0.0
 11
415.4768922542
 21
494.6391568896
 31
0.0
  0
LINE
  5
118
330
1F
100
AcDbEntity
  8
0
  6
Continuous
 62
     7
370
    15
100
AcDbLine
 10
415.4768922542
 20
494.6391568896
 30
0.0
 11
415.4768922542
 21
491.1391497967
 31
0.0
  0
LINE
  5
119
330
1F
100
AcDbEntity
  8
0
  6
Continuous
 62
     7
370
    15
100
AcDbLine
 10
415.4768922542
 20
491.1391497967
 30
0.0
 11
418.4768908833
 21
491.1391497967
 31
0.0
  0
LINE
  5
11A
330
1F
100
AcDbEntity
  8
0
  6
Continuous
 62
     7
370
    15
100
AcDbLine
 10
418.4768908833
 20
491.1391497967
 30
0.0
 11
418.4768908833
 21
494.6391568896
 31
0.0
  0
LINE
  5
11B
330
1F
100
AcDbEntity
  8
0
  6
Continuous
 62
     7
370
    15
100
AcDbLine
 10
418.4768908833
 20
494.6391568896
 30
0.0
 11
421.9768979763
 21
494.6391568896
 31
0.0
  0
LINE
  5
11C
330
1F
100
AcDbEntity
  8
0
  6
Continuous
 62
     7
370
    15
100
AcDbLine
 10
421.9768979763
 20
494.6391568896
 30
0.0
 11
421.9768979763
 21
497.6391555187
 31
0.0
  0
LINE
  5
11D
330
1F
100
AcDbEntity
  8
0
  6
Continuous
 62
     7
370
    15
100
AcDbLine
 10
421.9768979763
 20
497.6391555187
 30
0.0
 11
418.4768908833
 21
497.6391555187
 31
0.0
  0
LINE
  5
11E
330
1F
100
AcDbEntity
  8
0
  6
Continuous
 62
     7
370
    15
100
AcDbLine
 10
418.4768908833
 20
497.6391555187
 30
0.0
 11
418.4768908833
 21
501.1391477105
 31
0.0
  0
LINE
  5
11F
330
1F
100
AcDbEntity
  8
0
  6
Continuous
 62
     7
370
    15
100
AcDbLine
 10
381.976895145
 20
494.6391568896
 30
0.0
 11
381.9768914197
 21
491.1391497967
 31
0.0
  0
LINE
  5
120
330
1F
100
AcDbEntity
  8
0
  6
Continuous
 62
     7
370
    15
100
AcDbLine
 10
381.9768914197
 20
491.1391497967
 30
0.0
 11
384.9768900488
 21
491.1391497967
 31
0.0
  0
LINE
  5
121
330
1F
100
AcDbEntity
  8
0
  6
Continuous
 62
     7
370
    15
100
AcDbLine
 10
384.9768900488
 20
491.1391497967
 30
0.0
 11
384.9768900488
 21
494.6391568896
 31
0.0
  0
LINE
  5
122
330
1F
100
AcDbEntity
  8
0
  6
Continuous
 62
     7
370
    15
100
AcDbLine
 10
384.9768900488
 20
494.6391568896
 30
0.0
 11
388.4768971418
 21
494.6391568896
 31
0.0
  0
LINE
  5
123
330
1F
100
AcDbEntity
  8
0
  6
Continuous
 62
     7
370
    15
100
AcDbLine
 10
388.4768971418
 20
494.6391568896
 30
0.0
 11
388.4768971418
 21
497.6391555187
 31
0.0
  0
LINE
  5
124
330
1F
100
AcDbEntity
  8
0
  6
Continuous
 62
     7
370
    15
100
AcDbLine
 10
388.4768971418
 20
497.6391555187
 30
0.0
 11
384.9768937741
 21
497.6391555187
 31
0.0
  0
LINE
  5
125
330
1F
100
AcDbEntity
  8
0
  6
Continuous
 62
     7
370
    15
100
AcDbLine
 10
384.9768937741
 20
497.6391555187
 30
0.0
 11
384.9768900488
 21
501.1391477105
 31
0.0
  0
LINE
  5
126
330
1F
100
AcDbEntity
  8
0
  6
Continuous
 62
     7
370
    15
100
AcDbLine
 10
384.9768900488
 20
501.1391477105
 30
0.0
 11
381.9768914197
 21
501.1391477105
 31
0.0
  0
LINE
  5
127
330
1F
100
AcDbEntity
  8
0
  6
Continuous
 62
     7
370
    15
100
AcDbLine
 10
381.9768914197
 20
501.1391477105
 30
0.0
 11
381.9768914197
 21
497.6391555187
 31
0.0
  0
LINE
  5
128
330
1F
100
AcDbEntity
  8
0
  6
Continuous
 62
     7
370
    15
100
AcDbLine
 10
381.9768914197
 20
497.6391555187
 30
0.0
 11
378.4768955027
 21
497.6391555187
 31
0.0
  0
LINE
  5
129
330
1F
100
AcDbEntity
  8
0
  6
Continuous
 62
     7
370
    15
100
AcDbLine
 10
378.4768955027
 20
497.6391555187
 30
0.0
 11
378.4768955027
 21
494.6391568896
 31
0.0
  0
LINE
  5
12A
330
1F
100
AcDbEntity
  8
0
  6
Continuous
 62
     7
370
    15
100
AcDbLine
 10
378.4768955027
 20
494.6391568896
 30
0.0
 11
381.976895145
 21
494.6391568896
 31
0.0
  0
LINE
  5
12B
330
1F
100
AcDbEntity
  8
0
  6
Continuous
 62
     7
370
    15
100
AcDbLine
 10
498.9768901084
 20
595.1391505455
 30
0.0
 11
498.9768901084
 21
598.1391505716
 31
0.0
  0
LINE
  5
12C
330
1F
100
AcDbEntity
  8
0
  6
Continuous
 62
     7
370
    15
100
AcDbLine
 10
515.9768947576
 20
595.1391505455
 30
0.0
 11
498.9768901084
 21
595.1391505455
 31
0.0
  0
LINE
  5
12D
330
1F
100
AcDbEntity
  8
0
  6
Continuous
 62
     7
370
    15
100
AcDbLine
 10
515.9768947576
 20
578.1391510186
 30
0.0
 11
515.9768947576
 21
595.1391505455
 31
0.0
  0
LINE
  5
12E
330
1F
100
AcDbEntity
  8
0
  6
Continuous
 62
     7
370
    15
100
AcDbLine
 10
518.9768859361
 20
578.1391510186
 30
0.0
 11
515.9768947576
 21
578.1391510186
 31
0.0
  0
LINE
  5
12F
330
1F
100
AcDbEntity
  8
0
  6
Continuous
 62
     7
370
    15
100
AcDbLine
 10
518.9768859361
 20
397.6391540286
 30
0.0
 11
518.9768859361
 21
578.1391510186
 31
0.0
  0
LINE
  5
130
330
1F
100
AcDbEntity
  8
0
  6
Continuous
 62
     7
370
    15
100
AcDbLine
 10
515.9768947576
 20
397.6391540286
 30
0.0
 11
518.9768859361
 21
397.6391540286
 31
0.0
  0
LINE
  5
131
330
1F
100
AcDbEntity
  8
0
  6
Continuous
 62
     7
370
    15
100
AcDbLine
 10
515.9768947576
 20
380.6391493795
 30
0.0
 11
515.9768947576
 21
397.6391540286
 31
0.0
  0
LINE
  5
132
330
1F
100
AcDbEntity
  8
0
  6
Continuous
 62
     7
370
    15
100
AcDbLine
 10
498.9768901084
 20
380.6391493795
 30
0.0
 11
515.9768947576
 21
380.6391493795
 31
0.0
  0
LINE
  5
133
330
1F
100
AcDbEntity
  8
0
  6
Continuous
 62
     7
370
    15
100
AcDbLine
 10
498.9768901084
 20
377.6391432998
 30
0.0
 11
498.9768901084
 21
380.6391493795
 31
0.0
  0
LINE
  5
134
330
1F
100
AcDbEntity
  8
0
  6
Continuous
 62
     7
370
    15
100
AcDbLine
 10
368.4768901382
 20
377.6391432998
 30
0.0
 11
498.9768901084
 21
377.6391432998
 31
0.0
  0
LINE
  5
135
330
1F
100
AcDbEntity
  8
0
  6
Continuous
 62
     7
370
    15
100
AcDbLine
 10
368.4768901382
 20
380.6391493795
 30
0.0
 11
368.4768901382
 21
377.6391432998
 31
0.0
  0
LINE
  5
136
330
1F
100
AcDbEntity
  8
0
  6
Continuous
 62
     7
370
    15
100
AcDbLine
 10
351.4768906114
 20
380.6391493795
 30
0.0
 11
368.4768901382
 21
380.6391493795
 31
0.0
  0
LINE
  5
137
330
1F
100
AcDbEntity
  8
0
  6
Continuous
 62
     7
370
    15
100
AcDbLine
 10
351.4768906114
 20
397.6391540286
 30
0.0
 11
351.4768906114
 21
380.6391493795
 31
0.0
  0
LINE
  5
138
330
1F
100
AcDbEntity
  8
0
  6
Continuous
 62
     7
370
    15
100
AcDbLine
 10
348.4768905853
 20
397.6391540286
 30
0.0
 11
351.4768906114
 21
397.6391540286
 31
0.0
  0
LINE
  5
139
330
1F
100
AcDbEntity
  8
0
  6
Continuous
 62
     7
370
    15
100
AcDbLine
 10
348.4768905853
 20
578.1391510186
 30
0.0
 11
348.4768905853
 21
397.6391540286
 31
0.0
  0
LINE
  5
13A
330
1F
100
AcDbEntity
  8
0
  6
Continuous
 62
     7
370
    15
100
AcDbLine
 10
351.4768906114
 20
578.1391510186
 30
0.0
 11
348.4768905853
 21
578.1391510186
 31
0.0
  0
LINE
  5
13B
330
1F
100
AcDbEntity
  8
0
  6
Continuous
 62
     7
370
    15
100
AcDbLine
 10
351.4768906114
 20
595.1391505455
 30
0.0
 11
351.4768906114
 21
578.1391510186
 31
0.0
  0
LINE
  5
13C
330
1F
100
AcDbEntity
  8
0
  6
Continuous
 62
     7
370
    15
100
AcDbLine
 10
368.4768901382
 20
595.1391505455
 30
0.0
 11
351.4768906114
 21
595.1391505455
 31
0.0
  0
LINE
  5
13D
330
1F
100
AcDbEntity
  8
0
  6
Continuous
 62
     7
370
    15
100
AcDbLine
 10
368.4768901382
 20
598.1391505716
 30
0.0
 11
368.4768901382
 21
595.1391505455
 31
0.0
  0
LINE
  5
13E
330
1F
100
AcDbEntity
  8
0
  6
Continuous
 62
     7
370
    15
100
AcDbLine
 10
498.9768901084
 20
598.1391505716
 30
0.0
 11
368.4768901382
 21
598.1391505716
 31
0.0
  0
LINE
  5
13F
330
1F
100
AcDbEntity
  8
0
  6
Continuous
 62
     7
370
    15
100
AcDbLine
 10
92.5830208639
 20
344.3801876381
 30
0.0
 11
102.5830187777
 21
344.3801876381
 31
0.0
  0
LINE
  5
140
330
1F
100
AcDbEntity
  8
0
  6
Continuous
 62
     7
370
    15
100
AcDbLine
 10
92.5830208639
 20
345.3801876856
 30
0.0
 11
92.5830208639
 21
344.3801876381
 31
0.0
  0
LINE
  5
141
330
1F
100
AcDbEntity
  8
0
  6
Continuous
 62
     7
370
    15
100
AcDbLine
 10
82.0830219367
 20
345.3801876856
 30
0.0
 11
92.5830208639
 21
345.3801876856
 31
0.0
  0
LINE
  5
142
330
1F
100
AcDbEntity
  8
0
  6
Continuous
 62
     7
370
    15
100
AcDbLine
 10
82.0830219367
 20
344.3801876381
 30
0.0
 11
82.0830219367
 21
345.3801876856
 31
0.0
  0
LINE
  5
143
330
1F
100
AcDbEntity
  8
0
  6
Continuous
 62
     7
370
    15
100
AcDbLine
 10
72.0830165723
 20
344.3801876381
 30
0.0
 11
82.0830219367
 21
344.3801876381
 31
0.0
  0
LINE
  5
144
330
1F
100
AcDbEntity
  8
0
  6
Continuous
 62
     7
370
    15
100
AcDbLine
 10
72.0830165723
 20
359.3801873028
 30
0.0
 11
72.0830165723
 21
344.3801876381
 31
0.0
  0
LINE
  5
145
330
1F
100
AcDbEntity
  8
0
  6
Continuous
 62
     7
370
    15
100
AcDbLine
 10
69.0830179432
 20
359.3801873028
 30
0.0
 11
72.0830165723
 21
359.3801873028
 31
0.0
  0
LINE
  5
146
330
1F
100
AcDbEntity
  8
0
  6
Continuous
 62
     7
370
    15
100
AcDbLine
 10
69.0830179432
 20
344.3801876381
 30
0.0
 11
69.0830179432
 21
359.3801873028
 31
0.0
  0
LINE
  5
147
330
1F
100
AcDbEntity
  8
0
  6
Continuous
 62
     7
370
    15
100
AcDbLine
 10
59.0830200294
 20
344.3801876381
 30
0.0
 11
69.0830179432
 21
344.3801876381
 31
0.0
  0
LINE
  5
148
330
1F
100
AcDbEntity
  8
0
  6
Continuous
 62
     7
370
    15
100
AcDbLine
 10
59.0830200294
 20
345.3801876856
 30
0.0
 11
59.0830200294
 21
344.3801876381
 31
0.0
  0
LINE
  5
149
330
1F
100
AcDbEntity
  8
0
  6
Continuous
 62
     7
370
    15
100
AcDbLine
 10
48.5830211023
 20
345.3801876856
 30
0.0
 11
59.0830200294
 21
345.3801876856
 31
0.0
  0
LINE
  5
14A
330
1F
100
AcDbEntity
  8
0
  6
Continuous
 62
     7
370
    15
100
AcDbLine
 10
48.5830211023
 20
344.3801876381
 30
0.0
 11
48.5830211023
 21
345.3801876856
 31
0.0
  0
LINE
  5
14B
330
1F
100
AcDbEntity
  8
0
  6
Continuous
 62
     7
370
    15
100
AcDbLine
 10
38.5830194632
 20
344.3801876381
 30
0.0
 11
48.5830211023
 21
344.3801876381
 31
0.0
  0
LINE
  5
14C
330
1F
100
AcDbEntity
  8
0
  6
Continuous
 62
     7
370
    15
100
AcDbLine
 10
38.5830194632
 20
359.3801873028
 30
0.0
 11
38.5830194632
 21
344.3801876381
 31
0.0
  0
LINE
  5
14D
330
1F
100
AcDbEntity
  8
0
  6
Continuous
 62
     7
370
    15
100
AcDbLine
 10
35.5830208341
 20
359.3801873028
 30
0.0
 11
38.5830194632
 21
359.3801873028
 31
0.0
  0
LINE
  5
14E
330
1F
100
AcDbEntity
  8
0
  6
Continuous
 62
     7
370
    15
100
AcDbLine
 10
35.5830208341
 20
344.3801876381
 30
0.0
 11
35.5830208341
 21
359.3801873028
 31
0.0
  0
LINE
  5
14F
330
1F
100
AcDbEntity
  8
0
  6
Continuous
 62
     7
370
    15
100
AcDbLine
 10
25.5830191949
 20
344.3801876381
 30
0.0
 11
35.5830208341
 21
344.3801876381
 31
0.0
  0
LINE
  5
150
330
1F
100
AcDbEntity
  8
0
  6
Continuous
 62
     7
370
    15
100
AcDbLine
 10
25.5830191949
 20
345.3801876856
 30
0.0
 11
25.5830191949
 21
344.3801876381
 31
0.0
  0
LINE
  5
151
330
1F
100
AcDbEntity
  8
0
  6
Continuous
 62
     7
370
    15
100
AcDbLine
 10
15.0830193365
 20
345.3801876856
 30
0.0
 11
25.5830191949
 21
345.3801876856
 31
0.0
  0
LINE
  5
152
330
1F
100
AcDbEntity
  8
0
  6
Continuous
 62
     7
370
    15
100
AcDbLine
 10
15.0830193365
 20
344.3801876381
 30
0.0
 11
15.0830193365
 21
345.3801876856
 31
0.0
  0
LINE
  5
153
330
1F
100
AcDbEntity
  8
0
  6
Continuous
 62
     7
370
    15
100
AcDbLine
 10
5.0830193272
 20
344.3801876381
 30
0.0
 11
15.0830193365
 21
344.3801876381
 31
0.0
  0
LINE
  5
154
330
1F
100
AcDbEntity
  8
0
  6
Continuous
 62
     7
370
    15
100
AcDbLine
 10
5.0830193272
 20
374.3801869675
 30
0.0
 11
5.0830193272
 21
344.3801876381
 31
0.0
  0
LINE
  5
155
330
1F
100
AcDbEntity
  8
0
  6
Continuous
 62
     7
370
    15
100
AcDbLine
 10
169.583012996
 20
374.3801869675
 30
0.0
 11
5.0830193272
 21
374.3801869675
 31
0.0
  0
LINE
  5
156
330
1F
100
AcDbEntity
  8
0
  6
Continuous
 62
     7
370
    15
100
AcDbLine
 10
169.583012996
 20
344.3801876381
 30
0.0
 11
169.583012996
 21
374.3801869675
 31
0.0
  0
LINE
  5
157
330
1F
100
AcDbEntity
  8
0
  6
Continuous
 62
     7
370
    15
100
AcDbLine
 10
159.5830225328
 20
344.3801876381
 30
0.0
 11
169.583012996
 21
344.3801876381
 31
0.0
  0
LINE
  5
158
330
1F
100
AcDbEntity
  8
0
  6
Continuous
 62
     7
370
    15
100
AcDbLine
 10
159.5830225328
 20
345.3801876856
 30
0.0
 11
159.5830225328
 21
344.3801876381
 31
0.0
  0
LINE
  5
159
330
1F
100
AcDbEntity
  8
0
  6
Continuous
 62
     7
370
    15
100
AcDbLine
 10
149.0830236057
 20
345.3801876856
 30
0.0
 11
159.5830225328
 21
345.3801876856
 31
0.0
  0
LINE
  5
15A
330
1F
100
AcDbEntity
  8
0
  6
Continuous
 62
     7
370
    15
100
AcDbLine
 10
149.0830236057
 20
344.3801876381
 30
0.0
 11
149.0830236057
 21
345.3801876856
 31
0.0
  0
LINE
  5
15B
330
1F
100
AcDbEntity
  8
0
  6
Continuous
 62
     7
370
    15
100
AcDbLine
 10
139.0830182413
 20
344.3801876381
 30
0.0
 11
149.0830236057
 21
344.3801876381
 31
0.0
  0
LINE
  5
15C
330
1F
100
AcDbEntity
  8
0
  6
Continuous
 62
     7
370
    15
100
AcDbLine
 10
139.0830182413
 20
359.3801873028
 30
0.0
 11
139.0830182413
 21
344.3801876381
 31
0.0
  0
LINE
  5
15D
330
1F
100
AcDbEntity
  8
0
  6
Continuous
 62
     7
370
    15
100
AcDbLine
 10
136.0830121616
 20
359.3801873028
 30
0.0
 11
139.0830182413
 21
359.3801873028
 31
0.0
  0
LINE
  5
15E
330
1F
100
AcDbEntity
  8
0
  6
Continuous
 62
     7
370
    15
100
AcDbLine
 10
136.0830121616
 20
344.3801876381
 30
0.0
 11
136.0830121616
 21
359.3801873028
 31
0.0
  0
LINE
  5
15F
330
1F
100
AcDbEntity
  8
0
  6
Continuous
 62
     7
370
    15
100
AcDbLine
 10
126.0830216983
 20
344.3801876381
 30
0.0
 11
136.0830121616
 21
344.3801876381
 31
0.0
  0
LINE
  5
160
330
1F
100
AcDbEntity
  8
0
  6
Continuous
 62
     7
370
    15
100
AcDbLine
 10
126.0830216983
 20
345.3801876856
 30
0.0
 11
126.0830216983
 21
344.3801876381
 31
0.0
  0
LINE
  5
161
330
1F
100
AcDbEntity
  8
0
  6
Continuous
 62
     7
370
    15
100
AcDbLine
 10
115.5830227712
 20
345.3801876856
 30
0.0
 11
126.0830216983
 21
345.3801876856
 31
0.0
  0
LINE
  5
162
330
1F
100
AcDbEntity
  8
0
  6
Continuous
 62
     7
370
    15
100
AcDbLine
 10
115.5830227712
 20
344.3801876381
 30
0.0
 11
115.5830227712
 21
345.3801876856
 31
0.0
  0
LINE
  5
163
330
1F
100
AcDbEntity
  8
0
  6
Continuous
 62
     7
370
    15
100
AcDbLine
 10
105.5830174068
 20
344.3801876381
 30
0.0
 11
115.5830227712
 21
344.3801876381
 31
0.0
  0
LINE
  5
164
330
1F
100
AcDbEntity
  8
0
  6
Continuous
 62
     7
370
    15
100
AcDbLine
 10
105.5830174068
 20
359.3801873028
 30
0.0
 11
105.5830174068
 21
344.3801876381
 31
0.0
  0
LINE
  5
165
330
1F
100
AcDbEntity
  8
0
  6
Continuous
 62
     7
370
    15
100
AcDbLine
 10
102.5830187777
 20
359.3801873028
 30
0.0
 11
105.5830174068
 21
359.3801873028
 31
0.0
  0
LINE
  5
166
330
1F
100
AcDbEntity
  8
0
  6
Continuous
 62
     7
370
    15
100
AcDbLine
 10
102.5830187777
 20
344.3801876381
 30
0.0
 11
102.5830187777
 21
359.3801873028
 31
0.0
  0
LINE
  5
167
330
1F
100
AcDbEntity
  8
0
  6
Continuous
 62
     7
370
    15
100
AcDbLine
 10
92.5830208639
 20
311.0702814571
 30
0.0
 11
102.5830187777
 21
311.0702814571
 31
0.0
  0
LINE
  5
168
330
1F
100
AcDbEntity
  8
0
  6
Continuous
 62
     7
370
    15
100
AcDbLine
 10
92.5830208639
 20
312.0702815046
 30
0.0
 11
92.5830208639
 21
311.0702814571
 31
0.0
  0
LINE
  5
169
330
1F
100
AcDbEntity
  8
0
  6
Continuous
 62
     7
370
    15
100
AcDbLine
 10
82.0830219367
 20
312.0702815046
 30
0.0
 11
92.5830208639
 21
312.0702815046
 31
0.0
  0
LINE
  5
16A
330
1F
100
AcDbEntity
  8
0
  6
Continuous
 62
     7
370
    15
100
AcDbLine
 10
82.0830219367
 20
311.0702814571
 30
0.0
 11
82.0830219367
 21
312.0702815046
 31
0.0
  0
LINE
  5
16B
330
1F
100
AcDbEntity
  8
0
  6
Continuous
 62
     7
370
    15
100
AcDbLine
 10
72.0830165723
 20
311.0702814571
 30
0.0
 11
82.0830219367
 21
311.0702814571
 31
0.0
  0
LINE
  5
16C
330
1F
100
AcDbEntity
  8
0
  6
Continuous
 62
     7
370
    15
100
AcDbLine
 10
72.0830165723
 20
326.0702811218
 30
0.0
 11
72.0830165723
 21
311.0702814571
 31
0.0
  0
LINE
  5
16D
330
1F
100
AcDbEntity
  8
0
  6
Continuous
 62
     7
370
    15
100
AcDbLine
 10
69.0830179432
 20
326.0702811218
 30
0.0
 11
72.0830165723
 21
326.0702811218
 31
0.0
  0
LINE
  5
16E
330
1F
100
AcDbEntity
  8
0
  6
Continuous
 62
     7
370
    15
100
AcDbLine
 10
69.0830179432
 20
311.0702814571
 30
0.0
 11
69.0830179432
 21
326.0702811218
 31
0.0
  0
LINE
  5
16F
330
1F
100
AcDbEntity
  8
0
  6
Continuous
 62
     7
370
    15
100
AcDbLine
 10
59.0830200294
 20
311.0702814571
 30
0.0
 11
69.0830179432
 21
311.0702814571
 31
0.0
  0
LINE
  5
170
330
1F
100
AcDbEntity
  8
0
  6
Continuous
 62
     7
370
    15
100
AcDbLine
 10
59.0830200294
 20
312.0702815046
 30
0.0
 11
59.0830200294
 21
311.0702814571
 31
0.0
  0
LINE
  5
171
330
1F
100
AcDbEntity
  8
0
  6
Continuous
 62
     7
370
    15
100
AcDbLine
 10
48.5830211023
 20
312.0702815046
 30
0.0
 11
59.0830200294
 21
312.0702815046
 31
0.0
  0
LINE
  5
172
330
1F
100
AcDbEntity
  8
0
  6
Continuous
 62
     7
370
    15
100
AcDbLine
 10
48.5830211023
 20
311.0702814571
 30
0.0
 11
48.5830211023
 21
312.0702815046
 31
0.0
  0
LINE
  5
173
330
1F
100
AcDbEntity
  8
0
  6
Continuous
 62
     7
370
    15
100
AcDbLine
 10
38.5830194632
 20
311.0702814571
 30
0.0
 11
48.5830211023
 21
311.0702814571
 31
0.0
  0
LINE
  5
174
330
1F
100
AcDbEntity
  8
0
  6
Continuous
 62
     7
370
    15
100
AcDbLine
 10
38.5830194632
 20
326.0702811218
 30
0.0
 11
38.5830194632
 21
311.0702814571
 31
0.0
  0
LINE
  5
175
330
1F
100
AcDbEntity
  8
0
  6
Continuous
 62
     7
370
    15
100
AcDbLine
 10
35.5830208341
 20
326.0702811218
 30
0.0
 11
38.5830194632
 21
326.0702811218
 31
0.0
  0
LINE
  5
176
330
1F
100
AcDbEntity
  8
0
  6
Continuous
 62
     7
370
    15
100
AcDbLine
 10
35.5830208341
 20
311.0702814571
 30
0.0
 11
35.5830208341
 21
326.0702811218
 31
0.0
  0
LINE
  5
177
330
1F
100
AcDbEntity
  8
0
  6
Continuous
 62
     7
370
    15
100
AcDbLine
 10
25.5830191949
 20
311.0702814571
 30
0.0
 11
35.5830208341
 21
311.0702814571
 31
0.0
  0
LINE
  5
178
330
1F
100
AcDbEntity
  8
0
  6
Continuous
 62
     7
370
    15
100
AcDbLine
 10
25.5830191949
 20
312.0702815046
 30
0.0
 11
25.5830191949
 21
311.0702814571
 31
0.0
  0
LINE
  5
179
330
1F
100
AcDbEntity
  8
0
  6
Continuous
 62
     7
370
    15
100
AcDbLine
 10
15.0830193365
 20
312.0702815046
 30
0.0
 11
25.5830191949
 21
312.0702815046
 31
0.0
  0
LINE
  5
17A
330
1F
100
AcDbEntity
  8
0
  6
Continuous
 62
     7
370
    15
100
AcDbLine
 10
15.0830193365
 20
311.0702814571
 30
0.0
 11
15.0830193365
 21
312.0702815046
 31
0.0
  0
LINE
  5
17B
330
1F
100
AcDbEntity
  8
0
  6
Continuous
 62
     7
370
    15
100
AcDbLine
 10
5.0830193272
 20
311.0702814571
 30
0.0
 11
15.0830193365
 21
311.0702814571
 31
0.0
  0
LINE
  5
17C
330
1F
100
AcDbEntity
  8
0
  6
Continuous
 62
     7
370
    15
100
AcDbLine
 10
5.0830193272
 20
341.0702807866
 30
0.0
 11
5.0830193272
 21
311.0702814571
 31
0.0
  0
LINE
  5
17D
330
1F
100
AcDbEntity
  8
0
  6
Continuous
 62
     7
370
    15
100
AcDbLine
 10
169.583012996
 20
341.0702807866
 30
0.0
 11
5.0830193272
 21
341.0702807866
 31
0.0
  0
LINE
  5
17E
330
1F
100
AcDbEntity
  8
0
  6
Continuous
 62
     7
370
    15
100
AcDbLine
 10
169.583012996
 20
311.0702814571
 30
0.0
 11
169.583012996
 21
341.0702807866
 31
0.0
  0
LINE
  5
17F
330
1F
100
AcDbEntity
  8
0
  6
Continuous
 62
     7
370
    15
100
AcDbLine
 10
159.5830225328
 20
311.0702814571
 30
0.0
 11
169.583012996
 21
311.0702814571
 31
0.0
  0
LINE
  5
180
330
1F
100
AcDbEntity
  8
0
  6
Continuous
 62
     7
370
    15
100
AcDbLine
 10
159.5830225328
 20
312.0702815046
 30
0.0
 11
159.5830225328
 21
311.0702814571
 31
0.0
  0
LINE
  5
181
330
1F
100
AcDbEntity
  8
0
  6
Continuous
 62
     7
370
    15
100
AcDbLine
 10
149.0830236057
 20
312.0702815046
 30
0.0
 11
159.5830225328
 21
312.0702815046
 31
0.0
  0
LINE
  5
182
330
1F
100
AcDbEntity
  8
0
  6
Continuous
 62
     7
370
    15
100
AcDbLine
 10
149.0830236057
 20
311.0702814571
 30
0.0
 11
149.0830236057
 21
312.0702815046
 31
0.0
  0
LINE
  5
183
330
1F
100
AcDbEntity
  8
0
  6
Continuous
 62
     7
370
    15
100
AcDbLine
 10
139.0830182413
 20
311.0702814571
 30
0.0
 11
149.0830236057
 21
311.0702814571
 31
0.0
  0
LINE
  5
184
330
1F
100
AcDbEntity
  8
0
  6
Continuous
 62
     7
370
    15
100
AcDbLine
 10
139.0830182413
 20
326.0702811218
 30
0.0
 11
139.0830182413
 21
311.0702814571
 31
0.0
  0
LINE
  5
185
330
1F
100
AcDbEntity
  8
0
  6
Continuous
 62
     7
370
    15
100
AcDbLine
 10
136.0830121616
 20
326.0702811218
 30
0.0
 11
139.0830182413
 21
326.0702811218
 31
0.0
  0
LINE
  5
186
330
1F
100
AcDbEntity
  8
0
  6
Continuous
 62
     7
370
    15
100
AcDbLine
 10
136.0830121616
 20
311.0702814571
 30
0.0
 11
136.0830121616
 21
326.0702811218
 31
0.0
  0
LINE
  5
187
330
1F
100
AcDbEntity
  8
0
  6
Continuous
 62
     7
370
    15
100
AcDbLine
 10
126.0830216983
 20
311.0702814571
 30
0.0
 11
136.0830121616
 21
311.0702814571
 31
0.0
  0
LINE
  5
188
330
1F
100
AcDbEntity
  8
0
  6
Continuous
 62
     7
370
    15
100
AcDbLine
 10
126.0830216983
 20
312.0702815046
 30
0.0
 11
126.0830216983
 21
311.0702814571
 31
0.0
  0
LINE
  5
189
330
1F
100
AcDbEntity
  8
0
  6
Continuous
 62
     7
370
    15
100
AcDbLine
 10
115.5830227712
 20
312.0702815046
 30
0.0
 11
126.0830216983
 21
312.0702815046
 31
0.0
  0
LINE
  5
18A
330
1F
100
AcDbEntity
  8
0
  6
Continuous
 62
     7
370
    15
100
AcDbLine
 10
115.5830227712
 20
311.0702814571
 30
0.0
 11
115.5830227712
 21
312.0702815046
 31
0.0
  0
LINE
  5
18B
330
1F
100
AcDbEntity
  8
0
  6
Continuous
 62
     7
370
    15
100
AcDbLine
 10
105.5830174068
 20
311.0702814571
 30
0.0
 11
115.5830227712
 21
311.0702814571
 31
0.0
  0
LINE
  5
18C
330
1F
100
AcDbEntity
  8
0
  6
Continuous
 62
     7
370
    15
100
AcDbLine
 10
105.5830174068
 20
326.0702811218
 30
0.0
 11
105.5830174068
 21
311.0702814571
 31
0.0
  0
LINE
  5
18D
330
1F
100
AcDbEntity
  8
0
  6
Continuous
 62
     7
370
    15
100
AcDbLine
 10
102.5830187777
 20
326.0702811218
 30
0.0
 11
105.5830174068
 21
326.0702811218
 31
0.0
  0
LINE
  5
18E
330
1F
100
AcDbEntity
  8
0
  6
Continuous
 62
     7
370
    15
100
AcDbLine
 10
102.5830187777
 20
311.0702814571
 30
0.0
 11
102.5830187777
 21
326.0702811218
 31
0.0
  0
LINE
  5
18F
330
1F
100
AcDbEntity
  8
0
  6
Continuous
 62
     7
370
    15
100
AcDbLine
 10
92.1910396574
 20
277.5778283295
 30
0.0
 11
102.1910375713
 21
277.5778283295
 31
0.0
  0
LINE
  5
190
330
1F
100
AcDbEntity
  8
0
  6
Continuous
 62
     7
370
    15
100
AcDbLine
 10
92.1910396574
 20
278.5778283769
 30
0.0
 11
92.1910396574
 21
277.5778283295
 31
0.0
  0
LINE
  5
191
330
1F
100
AcDbEntity
  8
0
  6
Continuous
 62
     7
370
    15
100
AcDbLine
 10
81.6910407303
 20
278.5778283769
 30
0.0
 11
92.1910396574
 21
278.5778283769
 31
0.0
  0
LINE
  5
192
330
1F
100
AcDbEntity
  8
0
  6
Continuous
 62
     7
370
    15
100
AcDbLine
 10
81.6910407303
 20
277.5778283295
 30
0.0
 11
81.6910407303
 21
278.5778283769
 31
0.0
  0
LINE
  5
193
330
1F
100
AcDbEntity
  8
0
  6
Continuous
 62
     7
370
    15
100
AcDbLine
 10
71.6910353659
 20
277.5778283295
 30
0.0
 11
81.6910407303
 21
277.5778283295
 31
0.0
  0
LINE
  5
194
330
1F
100
AcDbEntity
  8
0
  6
Continuous
 62
     7
370
    15
100
AcDbLine
 10
71.6910353659
 20
292.5778279942
 30
0.0
 11
71.6910353659
 21
277.5778283295
 31
0.0
  0
LINE
  5
195
330
1F
100
AcDbEntity
  8
0
  6
Continuous
 62
     7
370
    15
100
AcDbLine
 10
68.6910367368
 20
292.5778279942
 30
0.0
 11
71.6910353659
 21
292.5778279942
 31
0.0
  0
LINE
  5
196
330
1F
100
AcDbEntity
  8
0
  6
Continuous
 62
     7
370
    15
100
AcDbLine
 10
68.6910367368
 20
277.5778283295
 30
0.0
 11
68.6910367368
 21
292.5778279942
 31
0.0
  0
LINE
  5
197
330
1F
100
AcDbEntity
  8
0
  6
Continuous
 62
     7
370
    15
100
AcDbLine
 10
58.691038823
 20
277.5778283295
 30
0.0
 11
68.6910367368
 21
277.5778283295
 31
0.0
  0
LINE
  5
198
330
1F
100
AcDbEntity
  8
0
  6
Continuous
 62
     7
370
    15
100
AcDbLine
 10
58.691038823
 20
278.5778283769
 30
0.0
 11
58.691038823
 21
277.5778283295
 31
0.0
  0
LINE
  5
199
330
1F
100
AcDbEntity
  8
0
  6
Continuous
 62
     7
370
    15
100
AcDbLine
 10
48.1910398958
 20
278.5778283769
 30
0.0
 11
58.691038823
 21
278.5778283769
 31
0.0
  0
LINE
  5
19A
330
1F
100
AcDbEntity
  8
0
  6
Continuous
 62
     7
370
    15
100
AcDbLine
 10
48.1910398958
 20
277.5778283295
 30
0.0
 11
48.1910398958
 21
278.5778283769
 31
0.0
  0
LINE
  5
19B
330
1F
100
AcDbEntity
  8
0
  6
Continuous
 62
     7
370
    15
100
AcDbLine
 10
38.1910382567
 20
277.5778283295
 30
0.0
 11
48.1910398958
 21
277.5778283295
 31
0.0
  0
LINE
  5
19C
330
1F
100
AcDbEntity
  8
0
  6
Continuous
 62
     7
370
    15
100
AcDbLine
 10
38.1910382567
 20
292.5778279942
 30
0.0
 11
38.1910382567
 21
277.5778283295
 31
0.0
  0
LINE
  5
19D
330
1F
100
AcDbEntity
  8
0
  6
Continuous
 62
     7
370
    15
100
AcDbLine
 10
35.1910396276
 20
292.5778279942
 30
0.0
 11
38.1910382567
 21
292.5778279942
 31
0.0
  0
LINE
  5
19E
330
1F
100
AcDbEntity
  8
0
  6
Continuous
 62
     7
370
    15
100
AcDbLine
 10
35.1910396276
 20
277.5778283295
 30
0.0
 11
35.1910396276
 21
292.5778279942
 31
0.0
  0
LINE
  5
19F
330
1F
100
AcDbEntity
  8
0
  6
Continuous
 62
     7
370
    15
100
AcDbLine
 10
25.1910379885
 20
277.5778283295
 30
0.0
 11
35.1910396276
 21
277.5778283295
 31
0.0
  0
LINE
  5
1A0
330
1F
100
AcDbEntity
  8
0
  6
Continuous
 62
     7
370
    15
100
AcDbLine
 10
25.1910379885
 20
278.5778283769
 30
0.0
 11
25.1910379885
 21
277.5778283295
 31
0.0
  0
LINE
  5
1A1
330
1F
100
AcDbEntity
  8
0
  6
Continuous
 62
     7
370
    15
100
AcDbLine
 10
14.69103813
 20
278.5778283769
 30
0.0
 11
25.1910379885
 21
278.5778283769
 31
0.0
  0
LINE
  5
1A2
330
1F
100
AcDbEntity
  8
0
  6
Continuous
 62
     7
370
    15
100
AcDbLine
 10
14.69103813
 20
277.5778283295
 30
0.0
 11
14.69103813
 21
278.5778283769
 31
0.0
  0
LINE
  5
1A3
330
1F
100
AcDbEntity
  8
0
  6
Continuous
 62
     7
370
    15
100
AcDbLine
 10
4.6910381207
 20
277.5778283295
 30
0.0
 11
14.69103813
 21
277.5778283295
 31
0.0
  0
LINE
  5
1A4
330
1F
100
AcDbEntity
  8
0
  6
Continuous
 62
     7
370
    15
100
AcDbLine
 10
4.6910381207
 20
307.5778276589
 30
0.0
 11
4.6910381207
 21
277.5778283295
 31
0.0
  0
LINE
  5
1A5
330
1F
100
AcDbEntity
  8
0
  6
Continuous
 62
     7
370
    15
100
AcDbLine
 10
169.1910317896
 20
307.5778276589
 30
0.0
 11
4.6910381207
 21
307.5778276589
 31
0.0
  0
LINE
  5
1A6
330
1F
100
AcDbEntity
  8
0
  6
Continuous
 62
     7
370
    15
100
AcDbLine
 10
169.1910317896
 20
277.5778283295
 30
0.0
 11
169.1910317896
 21
307.5778276589
 31
0.0
  0
LINE
  5
1A7
330
1F
100
AcDbEntity
  8
0
  6
Continuous
 62
     7
370
    15
100
AcDbLine
 10
159.1910413263
 20
277.5778283295
 30
0.0
 11
169.1910317896
 21
277.5778283295
 31
0.0
  0
LINE
  5
1A8
330
1F
100
AcDbEntity
  8
0
  6
Continuous
 62
     7
370
    15
100
AcDbLine
 10
159.1910413263
 20
278.5778283769
 30
0.0
 11
159.1910413263
 21
277.5778283295
 31
0.0
  0
LINE
  5
1A9
330
1F
100
AcDbEntity
  8
0
  6
Continuous
 62
     7
370
    15
100
AcDbLine
 10
148.6910423992
 20
278.5778283769
 30
0.0
 11
159.1910413263
 21
278.5778283769
 31
0.0
  0
LINE
  5
1AA
330
1F
100
AcDbEntity
  8
0
  6
Continuous
 62
     7
370
    15
100
AcDbLine
 10
148.6910423992
 20
277.5778283295
 30
0.0
 11
148.6910423992
 21
278.5778283769
 31
0.0
  0
LINE
  5
1AB
330
1F
100
AcDbEntity
  8
0
  6
Continuous
 62
     7
370
    15
100
AcDbLine
 10
138.6910370348
 20
277.5778283295
 30
0.0
 11
148.6910423992
 21
277.5778283295
 31
0.0
  0
LINE
  5
1AC
330
1F
100
AcDbEntity
  8
0
  6
Continuous
 62
     7
370
    15
100
AcDbLine
 10
138.6910370348
 20
292.5778279942
 30
0.0
 11
138.6910370348
 21
277.5778283295
 31
0.0
  0
LINE
  5
1AD
330
1F
100
AcDbEntity
  8
0
  6
Continuous
 62
     7
370
    15
100
AcDbLine
 10
135.6910309551
 20
292.5778279942
 30
0.0
 11
138.6910370348
 21
292.5778279942
 31
0.0
  0
LINE
  5
1AE
330
1F
100
AcDbEntity
  8
0
  6
Continuous
 62
     7
370
    15
100
AcDbLine
 10
135.6910309551
 20
277.5778283295
 30
0.0
 11
135.6910309551
 21
292.5778279942
 31
0.0
  0
LINE
  5
1AF
330
1F
100
AcDbEntity
  8
0
  6
Continuous
 62
     7
370
    15
100
AcDbLine
 10
125.6910404919
 20
277.5778283295
 30
0.0
 11
135.6910309551
 21
277.5778283295
 31
0.0
  0
LINE
  5
1B0
330
1F
100
AcDbEntity
  8
0
  6
Continuous
 62
     7
370
    15
100
AcDbLine
 10
125.6910404919
 20
278.5778283769
 30
0.0
 11
125.6910404919
 21
277.5778283295
 31
0.0
  0
LINE
  5
1B1
330
1F
100
AcDbEntity
  8
0
  6
Continuous
 62
     7
370
    15
100
AcDbLine
 10
115.1910415648
 20
278.5778283769
 30
0.0
 11
125.6910404919
 21
278.5778283769
 31
0.0
  0
LINE
  5
1B2
330
1F
100
AcDbEntity
  8
0
  6
Continuous
 62
     7
370
    15
100
AcDbLine
 10
115.1910415648
 20
277.5778283295
 30
0.0
 11
115.1910415648
 21
278.5778283769
 31
0.0
  0
LINE
  5
1B3
330
1F
100
AcDbEntity
  8
0
  6
Continuous
 62
     7
370
    15
100
AcDbLine
 10
105.1910362003
 20
277.5778283295
 30
0.0
 11
115.1910415648
 21
277.5778283295
 31
0.0
  0
LINE
  5
1B4
330
1F
100
AcDbEntity
  8
0
  6
Continuous
 62
     7
370
    15
100
AcDbLine
 10
105.1910362003
 20
292.5778279942
 30
0.0
 11
105.1910362003
 21
277.5778283295
 31
0.0
  0
LINE
  5
1B5
330
1F
100
AcDbEntity
  8
0
  6
Continuous
 62
     7
370
    15
100
AcDbLine
 10
102.1910375713
 20
292.5778279942
 30
0.0
 11
105.1910362003
 21
292.5778279942
 31
0.0
  0
LINE
  5
1B6
330
1F
100
AcDbEntity
  8
0
  6
Continuous
 62
     7
370
    15
100
AcDbLine
 10
102.1910375713
 20
277.5778283295
 30
0.0
 11
102.1910375713
 21
292.5778279942
 31
0.0
  0
LINE
  5
1B7
330
1F
100
AcDbEntity
  8
0
  6
Continuous
 62
     7
370
    15
100
AcDbLine
 10
266.1584940494
 20
344.0150937447
 30
0.0
 11
276.1584919632
 21
344.0150937447
 31
0.0
  0
LINE
  5
1B8
330
1F
100
AcDbEntity
  8
0
  6
Continuous
 62
     7
370
    15
100
AcDbLine
 10
266.1584940494
 20
345.0150937922
 30
0.0
 11
266.1584940494
 21
344.0150937447
 31
0.0
  0
LINE
  5
1B9
330
1F
100
AcDbEntity
  8
0
  6
Continuous
 62
     7
370
    15
100
AcDbLine
 10
255.6584951222
 20
345.0150937922
 30
0.0
 11
266.1584940494
 21
345.0150937922
 31
0.0
  0
LINE
  5
1BA
330
1F
100
AcDbEntity
  8
0
  6
Continuous
 62
     7
370
    15
100
AcDbLine
 10
255.6584951222
 20
344.0150937447
 30
0.0
 11
255.6584951222
 21
345.0150937922
 31
0.0
  0
LINE
  5
1BB
330
1F
100
AcDbEntity
  8
0
  6
Continuous
 62
     7
370
    15
100
AcDbLine
 10
245.6584897578
 20
344.0150937447
 30
0.0
 11
255.6584951222
 21
344.0150937447
 31
0.0
  0
LINE
  5
1BC
330
1F
100
AcDbEntity
  8
0
  6
Continuous
 62
     7
370
    15
100
AcDbLine
 10
245.6584897578
 20
359.0150934094
 30
0.0
 11
245.6584897578
 21
344.0150937447
 31
0.0
  0
LINE
  5
1BD
330
1F
100
AcDbEntity
  8
0
  6
Continuous
 62
     7
370
    15
100
AcDbLine
 10
242.6584911287
 20
359.0150934094
 30
0.0
 11
245.6584897578
 21
359.0150934094
 31
0.0
  0
LINE
  5
1BE
330
1F
100
AcDbEntity
  8
0
  6
Continuous
 62
     7
370
    15
100
AcDbLine
 10
242.6584911287
 20
344.0150937447
 30
0.0
 11
242.6584911287
 21
359.0150934094
 31
0.0
  0
LINE
  5
1BF
330
1F
100
AcDbEntity
  8
0
  6
Continuous
 62
     7
370
    15
100
AcDbLine
 10
232.6584932149
 20
344.0150937447
 30
0.0
 11
242.6584911287
 21
344.0150937447
 31
0.0
  0
LINE
  5
1C0
330
1F
100
AcDbEntity
  8
0
  6
Continuous
 62
     7
370
    15
100
AcDbLine
 10
232.6584932149
 20
345.0150937922
 30
0.0
 11
232.6584932149
 21
344.0150937447
 31
0.0
  0
LINE
  5
1C1
330
1F
100
AcDbEntity
  8
0
  6
Continuous
 62
     7
370
    15
100
AcDbLine
 10
222.1584942878
 20
345.0150937922
 30
0.0
 11
232.6584932149
 21
345.0150937922
 31
0.0
  0
LINE
  5
1C2
330
1F
100
AcDbEntity
  8
0
  6
Continuous
 62
     7
370
    15
100
AcDbLine
 10
222.1584942878
 20
344.0150937447
 30
0.0
 11
222.1584942878
 21
345.0150937922
 31
0.0
  0
LINE
  5
1C3
330
1F
100
AcDbEntity
  8
0
  6
Continuous
 62
     7
370
    15
100
AcDbLine
 10
212.1584926486
 20
344.0150937447
 30
0.0
 11
222.1584942878
 21
344.0150937447
 31
0.0
  0
LINE
  5
1C4
330
1F
100
AcDbEntity
  8
0
  6
Continuous
 62
     7
370
    15
100
AcDbLine
 10
212.1584926486
 20
359.0150934094
 30
0.0
 11
212.1584926486
 21
344.0150937447
 31
0.0
  0
LINE
  5
1C5
330
1F
100
AcDbEntity
  8
0
  6
Continuous
 62
     7
370
    15
100
AcDbLine
 10
209.1584940196
 20
359.0150934094
 30
0.0
 11
212.1584926486
 21
359.0150934094
 31
0.0
  0
LINE
  5
1C6
330
1F
100
AcDbEntity
  8
0
  6
Continuous
 62
     7
370
    15
100
AcDbLine
 10
209.1584940196
 20
344.0150937447
 30
0.0
 11
209.1584940196
 21
359.0150934094
 31
0.0
  0
LINE
  5
1C7
330
1F
100
AcDbEntity
  8
0
  6
Continuous
 62
     7
370
    15
100
AcDbLine
 10
199.1584923804
 20
344.0150937447
 30
0.0
 11
209.1584940196
 21
344.0150937447
 31
0.0
  0
LINE
  5
1C8
330
1F
100
AcDbEntity
  8
0
  6
Continuous
 62
     7
370
    15
100
AcDbLine
 10
199.1584923804
 20
345.0150937922
 30
0.0
 11
199.1584923804
 21
344.0150937447
 31
0.0
  0
LINE
  5
1C9
330
1F
100
AcDbEntity
  8
0
  6
Continuous
 62
     7
370
    15
100
AcDbLine
 10
188.658492522
 20
345.0150937922
 30
0.0
 11
199.1584923804
 21
345.0150937922
 31
0.0
  0
LINE
  5
1CA
330
1F
100
AcDbEntity
  8
0
  6
Continuous
 62
     7
370
    15
100
AcDbLine
 10
188.658492522
 20
344.0150937447
 30
0.0
 11
188.658492522
 21
345.0150937922
 31
0.0
  0
LINE
  5
1CB
330
1F
100
AcDbEntity
  8
0
  6
Continuous
 62
     7
370
    15
100
AcDbLine
 10
178.6584925127
 20
344.0150937447
 30
0.0
 11
188.658492522
 21
344.0150937447
 31
0.0
  0
LINE
  5
1CC
330
1F
100
AcDbEntity
  8
0
  6
Continuous
 62
     7
370
    15
100
AcDbLine
 10
178.6584925127
 20
374.0150930741
 30
0.0
 11
178.6584925127
 21
344.0150937447
 31
0.0
  0
LINE
  5
1CD
330
1F
100
AcDbEntity
  8
0
  6
Continuous
 62
     7
370
    15
100
AcDbLine
 10
343.1584861815
 20
374.0150930741
 30
0.0
 11
178.6584925127
 21
374.0150930741
 31
0.0
  0
LINE
  5
1CE
330
1F
100
AcDbEntity
  8
0
  6
Continuous
 62
     7
370
    15
100
AcDbLine
 10
343.1584861815
 20
344.0150937447
 30
0.0
 11
343.1584861815
 21
374.0150930741
 31
0.0
  0
LINE
  5
1CF
330
1F
100
AcDbEntity
  8
0
  6
Continuous
 62
     7
370
    15
100
AcDbLine
 10
333.1584957183
 20
344.0150937447
 30
0.0
 11
343.1584861815
 21
344.0150937447
 31
0.0
  0
LINE
  5
1D0
330
1F
100
AcDbEntity
  8
0
  6
Continuous
 62
     7
370
    15
100
AcDbLine
 10
333.1584957183
 20
345.0150937922
 30
0.0
 11
333.1584957183
 21
344.0150937447
 31
0.0
  0
LINE
  5
1D1
330
1F
100
AcDbEntity
  8
0
  6
Continuous
 62
     7
370
    15
100
AcDbLine
 10
322.6584967912
 20
345.0150937922
 30
0.0
 11
333.1584957183
 21
345.0150937922
 31
0.0
  0
LINE
  5
1D2
330
1F
100
AcDbEntity
  8
0
  6
Continuous
 62
     7
370
    15
100
AcDbLine
 10
322.6584967912
 20
344.0150937447
 30
0.0
 11
322.6584967912
 21
345.0150937922
 31
0.0
  0
LINE
  5
1D3
330
1F
100
AcDbEntity
  8
0
  6
Continuous
 62
     7
370
    15
100
AcDbLine
 10
312.6584914268
 20
344.0150937447
 30
0.0
 11
322.6584967912
 21
344.0150937447
 31
0.0
  0
LINE
  5
1D4
330
1F
100
AcDbEntity
  8
0
  6
Continuous
 62
     7
370
    15
100
AcDbLine
 10
312.6584914268
 20
359.0150934094
 30
0.0
 11
312.6584914268
 21
344.0150937447
 31
0.0
  0
LINE
  5
1D5
330
1F
100
AcDbEntity
  8
0
  6
Continuous
 62
     7
370
    15
100
AcDbLine
 10
309.6584853471
 20
359.0150934094
 30
0.0
 11
312.6584914268
 21
359.0150934094
 31
0.0
  0
LINE
  5
1D6
330
1F
100
AcDbEntity
  8
0
  6
Continuous
 62
     7
370
    15
100
AcDbLine
 10
309.6584853471
 20
344.0150937447
 30
0.0
 11
309.6584853471
 21
359.0150934094
 31
0.0
  0
LINE
  5
1D7
330
1F
100
AcDbEntity
  8
0
  6
Continuous
 62
     7
370
    15
100
AcDbLine
 10
299.6584948838
 20
344.0150937447
 30
0.0
 11
309.6584853471
 21
344.0150937447
 31
0.0
  0
LINE
  5
1D8
330
1F
100
AcDbEntity
  8
0
  6
Continuous
 62
     7
370
    15
100
AcDbLine
 10
299.6584948838
 20
345.0150937922
 30
0.0
 11
299.6584948838
 21
344.0150937447
 31
0.0
  0
LINE
  5
1D9
330
1F
100
AcDbEntity
  8
0
  6
Continuous
 62
     7
370
    15
100
AcDbLine
 10
289.1584959567
 20
345.0150937922
 30
0.0
 11
299.6584948838
 21
345.0150937922
 31
0.0
  0
LINE
  5
1DA
330
1F
100
AcDbEntity
  8
0
  6
Continuous
 62
     7
370
    15
100
AcDbLine
 10
289.1584959567
 20
344.0150937447
 30
0.0
 11
289.1584959567
 21
345.0150937922
 31
0.0
  0
LINE
  5
1DB
330
1F
100
AcDbEntity
  8
0
  6
Continuous
 62
     7
370
    15
100
AcDbLine
 10
279.1584905923
 20
344.0150937447
 30
0.0
 11
289.1584959567
 21
344.0150937447
 31
0.0
  0
LINE
  5
1DC
330
1F
100
AcDbEntity
  8
0
  6
Continuous
 62
     7
370
    15
100
AcDbLine
 10
279.1584905923
 20
359.0150934094
 30
0.0
 11
279.1584905923
 21
344.0150937447
 31
0.0
  0
LINE
  5
1DD
330
1F
100
AcDbEntity
  8
0
  6
Continuous
 62
     7
370
    15
100
AcDbLine
 10
276.1584919632
 20
359.0150934094
 30
0.0
 11
279.1584905923
 21
359.0150934094
 31
0.0
  0
LINE
  5
1DE
330
1F
100
AcDbEntity
  8
0
  6
Continuous
 62
     7
370
    15
100
AcDbLine
 10
276.1584919632
 20
344.0150937447
 30
0.0
 11
276.1584919632
 21
359.0150934094
 31
0.0
  0
LINE
  5
1DF
330
1F
100
AcDbEntity
  8
0
  6
Continuous
 62
     7
370
    15
100
AcDbLine
 10
266.3410409961
 20
310.6273577469
 30
0.0
 11
276.3410389099
 21
310.6273577469
 31
0.0
  0
LINE
  5
1E0
330
1F
100
AcDbEntity
  8
0
  6
Continuous
 62
     7
370
    15
100
AcDbLine
 10
266.3410409961
 20
311.6273577944
 30
0.0
 11
266.3410409961
 21
310.6273577469
 31
0.0
  0
LINE
  5
1E1
330
1F
100
AcDbEntity
  8
0
  6
Continuous
 62
     7
370
    15
100
AcDbLine
 10
255.8410420689
 20
311.6273577944
 30
0.0
 11
266.3410409961
 21
311.6273577944
 31
0.0
  0
LINE
  5
1E2
330
1F
100
AcDbEntity
  8
0
  6
Continuous
 62
     7
370
    15
100
AcDbLine
 10
255.8410420689
 20
310.6273577469
 30
0.0
 11
255.8410420689
 21
311.6273577944
 31
0.0
  0
LINE
  5
1E3
330
1F
100
AcDbEntity
  8
0
  6
Continuous
 62
     7
370
    15
100
AcDbLine
 10
245.8410367045
 20
310.6273577469
 30
0.0
 11
255.8410420689
 21
310.6273577469
 31
0.0
  0
LINE
  5
1E4
330
1F
100
AcDbEntity
  8
0
  6
Continuous
 62
     7
370
    15
100
AcDbLine
 10
245.8410367045
 20
325.6273574116
 30
0.0
 11
245.8410367045
 21
310.6273577469
 31
0.0
  0
LINE
  5
1E5
330
1F
100
AcDbEntity
  8
0
  6
Continuous
 62
     7
370
    15
100
AcDbLine
 10
242.8410380754
 20
325.6273574116
 30
0.0
 11
245.8410367045
 21
325.6273574116
 31
0.0
  0
LINE
  5
1E6
330
1F
100
AcDbEntity
  8
0
  6
Continuous
 62
     7
370
    15
100
AcDbLine
 10
242.8410380754
 20
310.6273577469
 30
0.0
 11
242.8410380754
 21
325.6273574116
 31
0.0
  0
LINE
  5
1E7
330
1F
100
AcDbEntity
  8
0
  6
Continuous
 62
     7
370
    15
100
AcDbLine
 10
232.8410401616
 20
310.6273577469
 30
0.0
 11
242.8410380754
 21
310.6273577469
 31
0.0
  0
LINE
  5
1E8
330
1F
100
AcDbEntity
  8
0
  6
Continuous
 62
     7
370
    15
100
AcDbLine
 10
232.8410401616
 20
311.6273577944
 30
0.0
 11
232.8410401616
 21
310.6273577469
 31
0.0
  0
LINE
  5
1E9
330
1F
100
AcDbEntity
  8
0
  6
Continuous
 62
     7
370
    15
100
AcDbLine
 10
222.3410412345
 20
311.6273577944
 30
0.0
 11
232.8410401616
 21
311.6273577944
 31
0.0
  0
LINE
  5
1EA
330
1F
100
AcDbEntity
  8
0
  6
Continuous
 62
     7
370
    15
100
AcDbLine
 10
222.3410412345
 20
310.6273577469
 30
0.0
 11
222.3410412345
 21
311.6273577944
 31
0.0
  0
LINE
  5
1EB
330
1F
100
AcDbEntity
  8
0
  6
Continuous
 62
     7
370
    15
100
AcDbLine
 10
212.3410395954
 20
310.6273577469
 30
0.0
 11
222.3410412345
 21
310.6273577469
 31
0.0
  0
LINE
  5
1EC
330
1F
100
AcDbEntity
  8
0
  6
Continuous
 62
     7
370
    15
100
AcDbLine
 10
212.3410395954
 20
325.6273574116
 30
0.0
 11
212.3410395954
 21
310.6273577469
 31
0.0
  0
LINE
  5
1ED
330
1F
100
AcDbEntity
  8
0
  6
Continuous
 62
     7
370
    15
100
AcDbLine
 10
209.3410409663
 20
325.6273574116
 30
0.0
 11
212.3410395954
 21
325.6273574116
 31
0.0
  0
LINE
  5
1EE
330
1F
100
AcDbEntity
  8
0
  6
Continuous
 62
     7
370
    15
100
AcDbLine
 10
209.3410409663
 20
310.6273577469
 30
0.0
 11
209.3410409663
 21
325.6273574116
 31
0.0
  0
LINE
  5
1EF
330
1F
100
AcDbEntity
  8
0
  6
Continuous
 62
     7
370
    15
100
AcDbLine
 10
199.3410393271
 20
310.6273577469
 30
0.0
 11
209.3410409663
 21
310.6273577469
 31
0.0
  0
LINE
  5
1F0
330
1F
100
AcDbEntity
  8
0
  6
Continuous
 62
     7
370
    15
100
AcDbLine
 10
199.3410393271
 20
311.6273577944
 30
0.0
 11
199.3410393271
 21
310.6273577469
 31
0.0
  0
LINE
  5
1F1
330
1F
100
AcDbEntity
  8
0
  6
Continuous
 62
     7
370
    15
100
AcDbLine
 10
188.8410394687
 20
311.6273577944
 30
0.0
 11
199.3410393271
 21
311.6273577944
 31
0.0
  0
LINE
  5
1F2
330
1F
100
AcDbEntity
  8
0
  6
Continuous
 62
     7
370
    15
100
AcDbLine
 10
188.8410394687
 20
310.6273577469
 30
0.0
 11
188.8410394687
 21
311.6273577944
 31
0.0
  0
LINE
  5
1F3
330
1F
100
AcDbEntity
  8
0
  6
Continuous
 62
     7
370
    15
100
AcDbLine
 10
178.8410394594
 20
310.6273577469
 30
0.0
 11
188.8410394687
 21
310.6273577469
 31
0.0
  0
LINE
  5
1F4
330
1F
100
AcDbEntity
  8
0
  6
Continuous
 62
     7
370
    15
100
AcDbLine
 10
178.8410394594
 20
340.6273570763
 30
0.0
 11
178.8410394594
 21
310.6273577469
 31
0.0
  0
LINE
  5
1F5
330
1F
100
AcDbEntity
  8
0
  6
Continuous
 62
     7
370
    15
100
AcDbLine
 10
343.3410331282
 20
340.6273570763
 30
0.0
 11
178.8410394594
 21
340.6273570763
 31
0.0
  0
LINE
  5
1F6
330
1F
100
AcDbEntity
  8
0
  6
Continuous
 62
     7
370
    15
100
AcDbLine
 10
343.3410331282
 20
310.6273577469
 30
0.0
 11
343.3410331282
 21
340.6273570763
 31
0.0
  0
LINE
  5
1F7
330
1F
100
AcDbEntity
  8
0
  6
Continuous
 62
     7
370
    15
100
AcDbLine
 10
333.341042665
 20
310.6273577469
 30
0.0
 11
343.3410331282
 21
310.6273577469
 31
0.0
  0
LINE
  5
1F8
330
1F
100
AcDbEntity
  8
0
  6
Continuous
 62
     7
370
    15
100
AcDbLine
 10
333.341042665
 20
311.6273577944
 30
0.0
 11
333.341042665
 21
310.6273577469
 31
0.0
  0
LINE
  5
1F9
330
1F
100
AcDbEntity
  8
0
  6
Continuous
 62
     7
370
    15
100
AcDbLine
 10
322.8410437379
 20
311.6273577944
 30
0.0
 11
333.341042665
 21
311.6273577944
 31
0.0
  0
LINE
  5
1FA
330
1F
100
AcDbEntity
  8
0
  6
Continuous
 62
     7
370
    15
100
AcDbLine
 10
322.8410437379
 20
310.6273577469
 30
0.0
 11
322.8410437379
 21
311.6273577944
 31
0.0
  0
LINE
  5
1FB
330
1F
100
AcDbEntity
  8
0
  6
Continuous
 62
     7
370
    15
100
AcDbLine
 10
312.8410383735
 20
310.6273577469
 30
0.0
 11
322.8410437379
 21
310.6273577469
 31
0.0
  0
LINE
  5
1FC
330
1F
100
AcDbEntity
  8
0
  6
Continuous
 62
     7
370
    15
100
AcDbLine
 10
312.8410383735
 20
325.6273574116
 30
0.0
 11
312.8410383735
 21
310.6273577469
 31
0.0
  0
LINE
  5
1FD
330
1F
100
AcDbEntity
  8
0
  6
Continuous
 62
     7
370
    15
100
AcDbLine
 10
309.8410322938
 20
325.6273574116
 30
0.0
 11
312.8410383735
 21
325.6273574116
 31
0.0
  0
LINE
  5
1FE
330
1F
100
AcDbEntity
  8
0
  6
Continuous
 62
     7
370
    15
100
AcDbLine
 10
309.8410322938
 20
310.6273577469
 30
0.0
 11
309.8410322938
 21
325.6273574116
 31
0.0
  0
LINE
  5
1FF
330
1F
100
AcDbEntity
  8
0
  6
Continuous
 62
     7
370
    15
100
AcDbLine
 10
299.8410418305
 20
310.6273577469
 30
0.0
 11
309.8410322938
 21
310.6273577469
 31
0.0
  0
LINE
  5
200
330
1F
100
AcDbEntity
  8
0
  6
Continuous
 62
     7
370
    15
100
AcDbLine
 10
299.8410418305
 20
311.6273577944
 30
0.0
 11
299.8410418305
 21
310.6273577469
 31
0.0
  0
LINE
  5
201
330
1F
100
AcDbEntity
  8
0
  6
Continuous
 62
     7
370
    15
100
AcDbLine
 10
289.3410429034
 20
311.6273577944
 30
0.0
 11
299.8410418305
 21
311.6273577944
 31
0.0
  0
LINE
  5
202
330
1F
100
AcDbEntity
  8
0
  6
Continuous
 62
     7
370
    15
100
AcDbLine
 10
289.3410429034
 20
310.6273577469
 30
0.0
 11
289.3410429034
 21
311.6273577944
 31
0.0
  0
LINE
  5
203
330
1F
100
AcDbEntity
  8
0
  6
Continuous
 62
     7
370
    15
100
AcDbLine
 10
279.341037539
 20
310.6273577469
 30
0.0
 11
289.3410429034
 21
310.6273577469
 31
0.0
  0
LINE
  5
204
330
1F
100
AcDbEntity
  8
0
  6
Continuous
 62
     7
370
    15
100
AcDbLine
 10
279.341037539
 20
325.6273574116
 30
0.0
 11
279.341037539
 21
310.6273577469
 31
0.0
  0
LINE
  5
205
330
1F
100
AcDbEntity
  8
0
  6
Continuous
 62
     7
370
    15
100
AcDbLine
 10
276.3410389099
 20
325.6273574116
 30
0.0
 11
279.341037539
 21
325.6273574116
 31
0.0
  0
LINE
  5
206
330
1F
100
AcDbEntity
  8
0
  6
Continuous
 62
     7
370
    15
100
AcDbLine
 10
276.3410389099
 20
310.6273577469
 30
0.0
 11
276.3410389099
 21
325.6273574116
 31
0.0
  0
LINE
  5
207
330
1F
100
AcDbEntity
  8
0
  6
Continuous
 62
     7
370
    15
100
AcDbLine
 10
266.0537769195
 20
277.4999985126
 30
0.0
 11
276.0537748333
 21
277.4999985126
 31
0.0
  0
LINE
  5
208
330
1F
100
AcDbEntity
  8
0
  6
Continuous
 62
     7
370
    15
100
AcDbLine
 10
266.0537769195
 20
278.4999985601
 30
0.0
 11
266.0537769195
 21
277.4999985126
 31
0.0
  0
LINE
  5
209
330
1F
100
AcDbEntity
  8
0
  6
Continuous
 62
     7
370
    15
100
AcDbLine
 10
255.5537779924
 20
278.4999985601
 30
0.0
 11
266.0537769195
 21
278.4999985601
 31
0.0
  0
LINE
  5
20A
330
1F
100
AcDbEntity
  8
0
  6
Continuous
 62
     7
370
    15
100
AcDbLine
 10
255.5537779924
 20
277.4999985126
 30
0.0
 11
255.5537779924
 21
278.4999985601
 31
0.0
  0
LINE
  5
20B
330
1F
100
AcDbEntity
  8
0
  6
Continuous
 62
     7
370
    15
100
AcDbLine
 10
245.553772628
 20
277.4999985126
 30
0.0
 11
255.5537779924
 21
277.4999985126
 31
0.0
  0
LINE
  5
20C
330
1F
100
AcDbEntity
  8
0
  6
Continuous
 62
     7
370
    15
100
AcDbLine
 10
245.553772628
 20
292.4999981773
 30
0.0
 11
245.553772628
 21
277.4999985126
 31
0.0
  0
LINE
  5
20D
330
1F
100
AcDbEntity
  8
0
  6
Continuous
 62
     7
370
    15
100
AcDbLine
 10
242.5537739989
 20
292.4999981773
 30
0.0
 11
245.553772628
 21
292.4999981773
 31
0.0
  0
LINE
  5
20E
330
1F
100
AcDbEntity
  8
0
  6
Continuous
 62
     7
370
    15
100
AcDbLine
 10
242.5537739989
 20
277.4999985126
 30
0.0
 11
242.5537739989
 21
292.4999981773
 31
0.0
  0
LINE
  5
20F
330
1F
100
AcDbEntity
  8
0
  6
Continuous
 62
     7
370
    15
100
AcDbLine
 10
232.553776085
 20
277.4999985126
 30
0.0
 11
242.5537739989
 21
277.4999985126
 31
0.0
  0
LINE
  5
210
330
1F
100
AcDbEntity
  8
0
  6
Continuous
 62
     7
370
    15
100
AcDbLine
 10
232.553776085
 20
278.4999985601
 30
0.0
 11
232.553776085
 21
277.4999985126
 31
0.0
  0
LINE
  5
211
330
1F
100
AcDbEntity
  8
0
  6
Continuous
 62
     7
370
    15
100
AcDbLine
 10
222.0537771579
 20
278.4999985601
 30
0.0
 11
232.553776085
 21
278.4999985601
 31
0.0
  0
LINE
  5
212
330
1F
100
AcDbEntity
  8
0
  6
Continuous
 62
     7
370
    15
100
AcDbLine
 10
222.0537771579
 20
277.4999985126
 30
0.0
 11
222.0537771579
 21
278.4999985601
 31
0.0
  0
LINE
  5
213
330
1F
100
AcDbEntity
  8
0
  6
Continuous
 62
     7
370
    15
100
AcDbLine
 10
212.0537755188
 20
277.4999985126
 30
0.0
 11
222.0537771579
 21
277.4999985126
 31
0.0
  0
LINE
  5
214
330
1F
100
AcDbEntity
  8
0
  6
Continuous
 62
     7
370
    15
100
AcDbLine
 10
212.0537755188
 20
292.4999981773
 30
0.0
 11
212.0537755188
 21
277.4999985126
 31
0.0
  0
LINE
  5
215
330
1F
100
AcDbEntity
  8
0
  6
Continuous
 62
     7
370
    15
100
AcDbLine
 10
209.0537768897
 20
292.4999981773
 30
0.0
 11
212.0537755188
 21
292.4999981773
 31
0.0
  0
LINE
  5
216
330
1F
100
AcDbEntity
  8
0
  6
Continuous
 62
     7
370
    15
100
AcDbLine
 10
209.0537768897
 20
277.4999985126
 30
0.0
 11
209.0537768897
 21
292.4999981773
 31
0.0
  0
LINE
  5
217
330
1F
100
AcDbEntity
  8
0
  6
Continuous
 62
     7
370
    15
100
AcDbLine
 10
199.0537752506
 20
277.4999985126
 30
0.0
 11
209.0537768897
 21
277.4999985126
 31
0.0
  0
LINE
  5
218
330
1F
100
AcDbEntity
  8
0
  6
Continuous
 62
     7
370
    15
100
AcDbLine
 10
199.0537752506
 20
278.4999985601
 30
0.0
 11
199.0537752506
 21
277.4999985126
 31
0.0
  0
LINE
  5
219
330
1F
100
AcDbEntity
  8
0
  6
Continuous
 62
     7
370
    15
100
AcDbLine
 10
188.5537753921
 20
278.4999985601
 30
0.0
 11
199.0537752506
 21
278.4999985601
 31
0.0
  0
LINE
  5
21A
330
1F
100
AcDbEntity
  8
0
  6
Continuous
 62
     7
370
    15
100
AcDbLine
 10
188.5537753921
 20
277.4999985126
 30
0.0
 11
188.5537753921
 21
278.4999985601
 31
0.0
  0
LINE
  5
21B
330
1F
100
AcDbEntity
  8
0
  6
Continuous
 62
     7
370
    15
100
AcDbLine
 10
178.5537753828
 20
277.4999985126
 30
0.0
 11
188.5537753921
 21
277.4999985126
 31
0.0
  0
LINE
  5
21C
330
1F
100
AcDbEntity
  8
0
  6
Continuous
 62
     7
370
    15
100
AcDbLine
 10
178.5537753828
 20
307.4999978421
 30
0.0
 11
178.5537753828
 21
277.4999985126
 31
0.0
  0
LINE
  5
21D
330
1F
100
AcDbEntity
  8
0
  6
Continuous
 62
     7
370
    15
100
AcDbLine
 10
343.0537690517
 20
307.4999978421
 30
0.0
 11
178.5537753828
 21
307.4999978421
 31
0.0
  0
LINE
  5
21E
330
1F
100
AcDbEntity
  8
0
  6
Continuous
 62
     7
370
    15
100
AcDbLine
 10
343.0537690517
 20
277.4999985126
 30
0.0
 11
343.0537690517
 21
307.4999978421
 31
0.0
  0
LINE
  5
21F
330
1F
100
AcDbEntity
  8
0
  6
Continuous
 62
     7
370
    15
100
AcDbLine
 10
333.0537785884
 20
277.4999985126
 30
0.0
 11
343.0537690517
 21
277.4999985126
 31
0.0
  0
LINE
  5
220
330
1F
100
AcDbEntity
  8
0
  6
Continuous
 62
     7
370
    15
100
AcDbLine
 10
333.0537785884
 20
278.4999985601
 30
0.0
 11
333.0537785884
 21
277.4999985126
 31
0.0
  0
LINE
  5
221
330
1F
100
AcDbEntity
  8
0
  6
Continuous
 62
     7
370
    15
100
AcDbLine
 10
322.5537796613
 20
278.4999985601
 30
0.0
 11
333.0537785884
 21
278.4999985601
 31
0.0
  0
LINE
  5
222
330
1F
100
AcDbEntity
  8
0
  6
Continuous
 62
     7
370
    15
100
AcDbLine
 10
322.5537796613
 20
277.4999985126
 30
0.0
 11
322.5537796613
 21
278.4999985601
 31
0.0
  0
LINE
  5
223
330
1F
100
AcDbEntity
  8
0
  6
Continuous
 62
     7
370
    15
100
AcDbLine
 10
312.5537742969
 20
277.4999985126
 30
0.0
 11
322.5537796613
 21
277.4999985126
 31
0.0
  0
LINE
  5
224
330
1F
100
AcDbEntity
  8
0
  6
Continuous
 62
     7
370
    15
100
AcDbLine
 10
312.5537742969
 20
292.4999981773
 30
0.0
 11
312.5537742969
 21
277.4999985126
 31
0.0
  0
LINE
  5
225
330
1F
100
AcDbEntity
  8
0
  6
Continuous
 62
     7
370
    15
100
AcDbLine
 10
309.5537682172
 20
292.4999981773
 30
0.0
 11
312.5537742969
 21
292.4999981773
 31
0.0
  0
LINE
  5
226
330
1F
100
AcDbEntity
  8
0
  6
Continuous
 62
     7
370
    15
100
AcDbLine
 10
309.5537682172
 20
277.4999985126
 30
0.0
 11
309.5537682172
 21
292.4999981773
 31
0.0
  0
LINE
  5
227
330
1F
100
AcDbEntity
  8
0
  6
Continuous
 62
     7
370
    15
100
AcDbLine
 10
299.553777754
 20
277.4999985126
 30
0.0
 11
309.5537682172
 21
277.4999985126
 31
0.0
  0
LINE
  5
228
330
1F
100
AcDbEntity
  8
0
  6
Continuous
 62
     7
370
    15
100
AcDbLine
 10
299.553777754
 20
278.4999985601
 30
0.0
 11
299.553777754
 21
277.4999985126
 31
0.0
  0
LINE
  5
229
330
1F
100
AcDbEntity
  8
0
  6
Continuous
 62
     7
370
    15
100
AcDbLine
 10
289.0537788268
 20
278.4999985601
 30
0.0
 11
299.553777754
 21
278.4999985601
 31
0.0
  0
LINE
  5
22A
330
1F
100
AcDbEntity
  8
0
  6
Continuous
 62
     7
370
    15
100
AcDbLine
 10
289.0537788268
 20
277.4999985126
 30
0.0
 11
289.0537788268
 21
278.4999985601
 31
0.0
  0
LINE
  5
22B
330
1F
100
AcDbEntity
  8
0
  6
Continuous
 62
     7
370
    15
100
AcDbLine
 10
279.0537734624
 20
277.4999985126
 30
0.0
 11
289.0537788268
 21
277.4999985126
 31
0.0
  0
LINE
  5
22C
330
1F
100
AcDbEntity
  8
0
  6
Continuous
 62
     7
370
    15
100
AcDbLine
 10
279.0537734624
 20
292.4999981773
 30
0.0
 11
279.0537734624
 21
277.4999985126
 31
0.0
  0
LINE
  5
22D
330
1F
100
AcDbEntity
  8
0
  6
Continuous
 62
     7
370
    15
100
AcDbLine
 10
276.0537748333
 20
292.4999981773
 30
0.0
 11
279.0537734624
 21
292.4999981773
 31
0.0
  0
LINE
  5
22E
330
1F
100
AcDbEntity
  8
0
  6
Continuous
 62
     7
370
    15
100
AcDbLine
 10
276.0537748333
 20
277.4999985126
 30
0.0
 11
276.0537748333
 21
292.4999981773
 31
0.0
  0
LINE
  5
22F
330
1F
100
AcDbEntity
  8
0
  6
Continuous
 62
     7
370
    15
100
AcDbLine
 10
437.9834954624
 20
343.8056594849
 30
0.0
 11
447.9834933762
 21
343.8056594849
 31
0.0
  0
LINE
  5
230
330
1F
100
AcDbEntity
  8
0
  6
Continuous
 62
     7
370
    15
100
AcDbLine
 10
437.9834954624
 20
344.8056595324
 30
0.0
 11
437.9834954624
 21
343.8056594849
 31
0.0
  0
LINE
  5
231
330
1F
100
AcDbEntity
  8
0
  6
Continuous
 62
     7
370
    15
100
AcDbLine
 10
427.4834965353
 20
344.8056595324
 30
0.0
 11
437.9834954624
 21
344.8056595324
 31
0.0
  0
LINE
  5
232
330
1F
100
AcDbEntity
  8
0
  6
Continuous
 62
     7
370
    15
100
AcDbLine
 10
427.4834965353
 20
343.8056594849
 30
0.0
 11
427.4834965353
 21
344.8056595324
 31
0.0
  0
LINE
  5
233
330
1F
100
AcDbEntity
  8
0
  6
Continuous
 62
     7
370
    15
100
AcDbLine
 10
417.4834911708
 20
343.8056594849
 30
0.0
 11
427.4834965353
 21
343.8056594849
 31
0.0
  0
LINE
  5
234
330
1F
100
AcDbEntity
  8
0
  6
Continuous
 62
     7
370
    15
100
AcDbLine
 10
417.4834911708
 20
358.8056591497
 30
0.0
 11
417.4834911708
 21
343.8056594849
 31
0.0
  0
LINE
  5
235
330
1F
100
AcDbEntity
  8
0
  6
Continuous
 62
     7
370
    15
100
AcDbLine
 10
414.4834925417
 20
358.8056591497
 30
0.0
 11
417.4834911708
 21
358.8056591497
 31
0.0
  0
LINE
  5
236
330
1F
100
AcDbEntity
  8
0
  6
Continuous
 62
     7
370
    15
100
AcDbLine
 10
414.4834925417
 20
343.8056594849
 30
0.0
 11
414.4834925417
 21
358.8056591497
 31
0.0
  0
LINE
  5
237
330
1F
100
AcDbEntity
  8
0
  6
Continuous
 62
     7
370
    15
100
AcDbLine
 10
404.4834946279
 20
343.8056594849
 30
0.0
 11
414.4834925417
 21
343.8056594849
 31
0.0
  0
LINE
  5
238
330
1F
100
AcDbEntity
  8
0
  6
Continuous
 62
     7
370
    15
100
AcDbLine
 10
404.4834946279
 20
344.8056595324
 30
0.0
 11
404.4834946279
 21
343.8056594849
 31
0.0
  0
LINE
  5
239
330
1F
100
AcDbEntity
  8
0
  6
Continuous
 62
     7
370
    15
100
AcDbLine
 10
393.9834957008
 20
344.8056595324
 30
0.0
 11
404.4834946279
 21
344.8056595324
 31
0.0
  0
LINE
  5
23A
330
1F
100
AcDbEntity
  8
0
  6
Continuous
 62
     7
370
    15
100
AcDbLine
 10
393.9834957008
 20
343.8056594849
 30
0.0
 11
393.9834957008
 21
344.8056595324
 31
0.0
  0
LINE
  5
23B
330
1F
100
AcDbEntity
  8
0
  6
Continuous
 62
     7
370
    15
100
AcDbLine
 10
383.9834940617
 20
343.8056594849
 30
0.0
 11
393.9834957008
 21
343.8056594849
 31
0.0
  0
LINE
  5
23C
330
1F
100
AcDbEntity
  8
0
  6
Continuous
 62
     7
370
    15
100
AcDbLine
 10
383.9834940617
 20
358.8056591497
 30
0.0
 11
383.9834940617
 21
343.8056594849
 31
0.0
  0
LINE
  5
23D
330
1F
100
AcDbEntity
  8
0
  6
Continuous
 62
     7
370
    15
100
AcDbLine
 10
380.9834954326
 20
358.8056591497
 30
0.0
 11
383.9834940617
 21
358.8056591497
 31
0.0
  0
LINE
  5
23E
330
1F
100
AcDbEntity
  8
0
  6
Continuous
 62
     7
370
    15
100
AcDbLine
 10
380.9834954326
 20
343.8056594849
 30
0.0
 11
380.9834954326
 21
358.8056591497
 31
0.0
  0
LINE
  5
23F
330
1F
100
AcDbEntity
  8
0
  6
Continuous
 62
     7
370
    15
100
AcDbLine
 10
370.9834937934
 20
343.8056594849
 30
0.0
 11
380.9834954326
 21
343.8056594849
 31
0.0
  0
LINE
  5
240
330
1F
100
AcDbEntity
  8
0
  6
Continuous
 62
     7
370
    15
100
AcDbLine
 10
370.9834937934
 20
344.8056595324
 30
0.0
 11
370.9834937934
 21
343.8056594849
 31
0.0
  0
LINE
  5
241
330
1F
100
AcDbEntity
  8
0
  6
Continuous
 62
     7
370
    15
100
AcDbLine
 10
360.483493935
 20
344.8056595324
 30
0.0
 11
370.9834937934
 21
344.8056595324
 31
0.0
  0
LINE
  5
242
330
1F
100
AcDbEntity
  8
0
  6
Continuous
 62
     7
370
    15
100
AcDbLine
 10
360.483493935
 20
343.8056594849
 30
0.0
 11
360.483493935
 21
344.8056595324
 31
0.0
  0
LINE
  5
243
330
1F
100
AcDbEntity
  8
0
  6
Continuous
 62
     7
370
    15
100
AcDbLine
 10
350.4834939257
 20
343.8056594849
 30
0.0
 11
360.483493935
 21
343.8056594849
 31
0.0
  0
LINE
  5
244
330
1F
100
AcDbEntity
  8
0
  6
Continuous
 62
     7
370
    15
100
AcDbLine
 10
350.4834939257
 20
373.8056588144
 30
0.0
 11
350.4834939257
 21
343.8056594849
 31
0.0
  0
LINE
  5
245
330
1F
100
AcDbEntity
  8
0
  6
Continuous
 62
     7
370
    15
100
AcDbLine
 10
514.9834875946
 20
373.8056588144
 30
0.0
 11
350.4834939257
 21
373.8056588144
 31
0.0
  0
LINE
  5
246
330
1F
100
AcDbEntity
  8
0
  6
Continuous
 62
     7
370
    15
100
AcDbLine
 10
514.9834875946
 20
343.8056594849
 30
0.0
 11
514.9834875946
 21
373.8056588144
 31
0.0
  0
LINE
  5
247
330
1F
100
AcDbEntity
  8
0
  6
Continuous
 62
     7
370
    15
100
AcDbLine
 10
504.9834971313
 20
343.8056594849
 30
0.0
 11
514.9834875946
 21
343.8056594849
 31
0.0
  0
LINE
  5
248
330
1F
100
AcDbEntity
  8
0
  6
Continuous
 62
     7
370
    15
100
AcDbLine
 10
504.9834971313
 20
344.8056595324
 30
0.0
 11
504.9834971313
 21
343.8056594849
 31
0.0
  0
LINE
  5
249
330
1F
100
AcDbEntity
  8
0
  6
Continuous
 62
     7
370
    15
100
AcDbLine
 10
494.4834982042
 20
344.8056595324
 30
0.0
 11
504.9834971313
 21
344.8056595324
 31
0.0
  0
LINE
  5
24A
330
1F
100
AcDbEntity
  8
0
  6
Continuous
 62
     7
370
    15
100
AcDbLine
 10
494.4834982042
 20
343.8056594849
 30
0.0
 11
494.4834982042
 21
344.8056595324
 31
0.0
  0
LINE
  5
24B
330
1F
100
AcDbEntity
  8
0
  6
Continuous
 62
     7
370
    15
100
AcDbLine
 10
484.4834928398
 20
343.8056594849
 30
0.0
 11
494.4834982042
 21
343.8056594849
 31
0.0
  0
LINE
  5
24C
330
1F
100
AcDbEntity
  8
0
  6
Continuous
 62
     7
370
    15
100
AcDbLine
 10
484.4834928398
 20
358.8056591497
 30
0.0
 11
484.4834928398
 21
343.8056594849
 31
0.0
  0
LINE
  5
24D
330
1F
100
AcDbEntity
  8
0
  6
Continuous
 62
     7
370
    15
100
AcDbLine
 10
481.4834867601
 20
358.8056591497
 30
0.0
 11
484.4834928398
 21
358.8056591497
 31
0.0
  0
LINE
  5
24E
330
1F
100
AcDbEntity
  8
0
  6
Continuous
 62
     7
370
    15
100
AcDbLine
 10
481.4834867601
 20
343.8056594849
 30
0.0
 11
481.4834867601
 21
358.8056591497
 31
0.0
  0
LINE
  5
24F
330
1F
100
AcDbEntity
  8
0
  6
Continuous
 62
     7
370
    15
100
AcDbLine
 10
471.4834962968
 20
343.8056594849
 30
0.0
 11
481.4834867601
 21
343.8056594849
 31
0.0
  0
LINE
  5
250
330
1F
100
AcDbEntity
  8
0
  6
Continuous
 62
     7
370
    15
100
AcDbLine
 10
471.4834962968
 20
344.8056595324
 30
0.0
 11
471.4834962968
 21
343.8056594849
 31
0.0
  0
LINE
  5
251
330
1F
100
AcDbEntity
  8
0
  6
Continuous
 62
     7
370
    15
100
AcDbLine
 10
460.9834973697
 20
344.8056595324
 30
0.0
 11
471.4834962968
 21
344.8056595324
 31
0.0
  0
LINE
  5
252
330
1F
100
AcDbEntity
  8
0
  6
Continuous
 62
     7
370
    15
100
AcDbLine
 10
460.9834973697
 20
343.8056594849
 30
0.0
 11
460.9834973697
 21
344.8056595324
 31
0.0
  0
LINE
  5
253
330
1F
100
AcDbEntity
  8
0
  6
Continuous
 62
     7
370
    15
100
AcDbLine
 10
450.9834920053
 20
343.8056594849
 30
0.0
 11
460.9834973697
 21
343.8056594849
 31
0.0
  0
LINE
  5
254
330
1F
100
AcDbEntity
  8
0
  6
Continuous
 62
     7
370
    15
100
AcDbLine
 10
450.9834920053
 20
358.8056591497
 30
0.0
 11
450.9834920053
 21
343.8056594849
 31
0.0
  0
LINE
  5
255
330
1F
100
AcDbEntity
  8
0
  6
Continuous
 62
     7
370
    15
100
AcDbLine
 10
447.9834933762
 20
358.8056591497
 30
0.0
 11
450.9834920053
 21
358.8056591497
 31
0.0
  0
LINE
  5
256
330
1F
100
AcDbEntity
  8
0
  6
Continuous
 62
     7
370
    15
100
AcDbLine
 10
447.9834933762
 20
343.8056594849
 30
0.0
 11
447.9834933762
 21
358.8056591497
 31
0.0
  0
LINE
  5
257
330
1F
100
AcDbEntity
  8
0
  6
Continuous
 62
     7
370
    15
100
AcDbLine
 10
437.6962313858
 20
310.1306594106
 30
0.0
 11
447.6962292996
 21
310.1306594106
 31
0.0
  0
LINE
  5
258
330
1F
100
AcDbEntity
  8
0
  6
Continuous
 62
     7
370
    15
100
AcDbLine
 10
437.6962313858
 20
311.1306594581
 30
0.0
 11
437.6962313858
 21
310.1306594106
 31
0.0
  0
LINE
  5
259
330
1F
100
AcDbEntity
  8
0
  6
Continuous
 62
     7
370
    15
100
AcDbLine
 10
427.1962324587
 20
311.1306594581
 30
0.0
 11
437.6962313858
 21
311.1306594581
 31
0.0
  0
LINE
  5
25A
330
1F
100
AcDbEntity
  8
0
  6
Continuous
 62
     7
370
    15
100
AcDbLine
 10
427.1962324587
 20
310.1306594106
 30
0.0
 11
427.1962324587
 21
311.1306594581
 31
0.0
  0
LINE
  5
25B
330
1F
100
AcDbEntity
  8
0
  6
Continuous
 62
     7
370
    15
100
AcDbLine
 10
417.1962270943
 20
310.1306594106
 30
0.0
 11
427.1962324587
 21
310.1306594106
 31
0.0
  0
LINE
  5
25C
330
1F
100
AcDbEntity
  8
0
  6
Continuous
 62
     7
370
    15
100
AcDbLine
 10
417.1962270943
 20
325.1306590753
 30
0.0
 11
417.1962270943
 21
310.1306594106
 31
0.0
  0
LINE
  5
25D
330
1F
100
AcDbEntity
  8
0
  6
Continuous
 62
     7
370
    15
100
AcDbLine
 10
414.1962284652
 20
325.1306590753
 30
0.0
 11
417.1962270943
 21
325.1306590753
 31
0.0
  0
LINE
  5
25E
330
1F
100
AcDbEntity
  8
0
  6
Continuous
 62
     7
370
    15
100
AcDbLine
 10
414.1962284652
 20
310.1306594106
 30
0.0
 11
414.1962284652
 21
325.1306590753
 31
0.0
  0
LINE
  5
25F
330
1F
100
AcDbEntity
  8
0
  6
Continuous
 62
     7
370
    15
100
AcDbLine
 10
404.1962305513
 20
310.1306594106
 30
0.0
 11
414.1962284652
 21
310.1306594106
 31
0.0
  0
LINE
  5
260
330
1F
100
AcDbEntity
  8
0
  6
Continuous
 62
     7
370
    15
100
AcDbLine
 10
404.1962305513
 20
311.1306594581
 30
0.0
 11
404.1962305513
 21
310.1306594106
 31
0.0
  0
LINE
  5
261
330
1F
100
AcDbEntity
  8
0
  6
Continuous
 62
     7
370
    15
100
AcDbLine
 10
393.6962316242
 20
311.1306594581
 30
0.0
 11
404.1962305513
 21
311.1306594581
 31
0.0
  0
LINE
  5
262
330
1F
100
AcDbEntity
  8
0
  6
Continuous
 62
     7
370
    15
100
AcDbLine
 10
393.6962316242
 20
310.1306594106
 30
0.0
 11
393.6962316242
 21
311.1306594581
 31
0.0
  0
LINE
  5
263
330
1F
100
AcDbEntity
  8
0
  6
Continuous
 62
     7
370
    15
100
AcDbLine
 10
383.6962299851
 20
310.1306594106
 30
0.0
 11
393.6962316242
 21
310.1306594106
 31
0.0
  0
LINE
  5
264
330
1F
100
AcDbEntity
  8
0
  6
Continuous
 62
     7
370
    15
100
AcDbLine
 10
383.6962299851
 20
325.1306590753
 30
0.0
 11
383.6962299851
 21
310.1306594106
 31
0.0
  0
LINE
  5
265
330
1F
100
AcDbEntity
  8
0
  6
Continuous
 62
     7
370
    15
100
AcDbLine
 10
380.696231356
 20
325.1306590753
 30
0.0
 11
383.6962299851
 21
325.1306590753
 31
0.0
  0
LINE
  5
266
330
1F
100
AcDbEntity
  8
0
  6
Continuous
 62
     7
370
    15
100
AcDbLine
 10
380.696231356
 20
310.1306594106
 30
0.0
 11
380.696231356
 21
325.1306590753
 31
0.0
  0
LINE
  5
267
330
1F
100
AcDbEntity
  8
0
  6
Continuous
 62
     7
370
    15
100
AcDbLine
 10
370.6962297169
 20
310.1306594106
 30
0.0
 11
380.696231356
 21
310.1306594106
 31
0.0
  0
LINE
  5
268
330
1F
100
AcDbEntity
  8
0
  6
Continuous
 62
     7
370
    15
100
AcDbLine
 10
370.6962297169
 20
311.1306594581
 30
0.0
 11
370.6962297169
 21
310.1306594106
 31
0.0
  0
LINE
  5
269
330
1F
100
AcDbEntity
  8
0
  6
Continuous
 62
     7
370
    15
100
AcDbLine
 10
360.1962298584
 20
311.1306594581
 30
0.0
 11
370.6962297169
 21
311.1306594581
 31
0.0
  0
LINE
  5
26A
330
1F
100
AcDbEntity
  8
0
  6
Continuous
 62
     7
370
    15
100
AcDbLine
 10
360.1962298584
 20
310.1306594106
 30
0.0
 11
360.1962298584
 21
311.1306594581
 31
0.0
  0
LINE
  5
26B
330
1F
100
AcDbEntity
  8
0
  6
Continuous
 62
     7
370
    15
100
AcDbLine
 10
350.1962298491
 20
310.1306594106
 30
0.0
 11
360.1962298584
 21
310.1306594106
 31
0.0
  0
LINE
  5
26C
330
1F
100
AcDbEntity
  8
0
  6
Continuous
 62
     7
370
    15
100
AcDbLine
 10
350.1962298491
 20
340.13065874
 30
0.0
 11
350.1962298491
 21
310.1306594106
 31
0.0
  0
LINE
  5
26D
330
1F
100
AcDbEntity
  8
0
  6
Continuous
 62
     7
370
    15
100
AcDbLine
 10
514.696223518
 20
340.13065874
 30
0.0
 11
350.1962298491
 21
340.13065874
 31
0.0
  0
LINE
  5
26E
330
1F
100
AcDbEntity
  8
0
  6
Continuous
 62
     7
370
    15
100
AcDbLine
 10
514.696223518
 20
310.1306594106
 30
0.0
 11
514.696223518
 21
340.13065874
 31
0.0
  0
LINE
  5
26F
330
1F
100
AcDbEntity
  8
0
  6
Continuous
 62
     7
370
    15
100
AcDbLine
 10
504.6962330547
 20
310.1306594106
 30
0.0
 11
514.696223518
 21
310.1306594106
 31
0.0
  0
LINE
  5
270
330
1F
100
AcDbEntity
  8
0
  6
Continuous
 62
     7
370
    15
100
AcDbLine
 10
504.6962330547
 20
311.1306594581
 30
0.0
 11
504.6962330547
 21
310.1306594106
 31
0.0
  0
LINE
  5
271
330
1F
100
AcDbEntity
  8
0
  6
Continuous
 62
     7
370
    15
100
AcDbLine
 10
494.1962341276
 20
311.1306594581
 30
0.0
 11
504.6962330547
 21
311.1306594581
 31
0.0
  0
LINE
  5
272
330
1F
100
AcDbEntity
  8
0
  6
Continuous
 62
     7
370
    15
100
AcDbLine
 10
494.1962341276
 20
310.1306594106
 30
0.0
 11
494.1962341276
 21
311.1306594581
 31
0.0
  0
LINE
  5
273
330
1F
100
AcDbEntity
  8
0
  6
Continuous
 62
     7
370
    15
100
AcDbLine
 10
484.1962287632
 20
310.1306594106
 30
0.0
 11
494.1962341276
 21
310.1306594106
 31
0.0
  0
LINE
  5
274
330
1F
100
AcDbEntity
  8
0
  6
Continuous
 62
     7
370
    15
100
AcDbLine
 10
484.1962287632
 20
325.1306590753
 30
0.0
 11
484.1962287632
 21
310.1306594106
 31
0.0
  0
LINE
  5
275
330
1F
100
AcDbEntity
  8
0
  6
Continuous
 62
     7
370
    15
100
AcDbLine
 10
481.1962226835
 20
325.1306590753
 30
0.0
 11
484.1962287632
 21
325.1306590753
 31
0.0
  0
LINE
  5
276
330
1F
100
AcDbEntity
  8
0
  6
Continuous
 62
     7
370
    15
100
AcDbLine
 10
481.1962226835
 20
310.1306594106
 30
0.0
 11
481.1962226835
 21
325.1306590753
 31
0.0
  0
LINE
  5
277
330
1F
100
AcDbEntity
  8
0
  6
Continuous
 62
     7
370
    15
100
AcDbLine
 10
471.1962322203
 20
310.1306594106
 30
0.0
 11
481.1962226835
 21
310.1306594106
 31
0.0
  0
LINE
  5
278
330
1F
100
AcDbEntity
  8
0
  6
Continuous
 62
     7
370
    15
100
AcDbLine
 10
471.1962322203
 20
311.1306594581
 30
0.0
 11
471.1962322203
 21
310.1306594106
 31
0.0
  0
LINE
  5
279
330
1F
100
AcDbEntity
  8
0
  6
Continuous
 62
     7
370
    15
100
AcDbLine
 10
460.6962332931
 20
311.1306594581
 30
0.0
 11
471.1962322203
 21
311.1306594581
 31
0.0
  0
LINE
  5
27A
330
1F
100
AcDbEntity
  8
0
  6
Continuous
 62
     7
370
    15
100
AcDbLine
 10
460.6962332931
 20
310.1306594106
 30
0.0
 11
460.6962332931
 21
311.1306594581
 31
0.0
  0
LINE
  5
27B
330
1F
100
AcDbEntity
  8
0
  6
Continuous
 62
     7
370
    15
100
AcDbLine
 10
450.6962279287
 20
310.1306594106
 30
0.0
 11
460.6962332931
 21
310.1306594106
 31
0.0
  0
LINE
  5
27C
330
1F
100
AcDbEntity
  8
0
  6
Continuous
 62
     7
370
    15
100
AcDbLine
 10
450.6962279287
 20
325.1306590753
 30
0.0
 11
450.6962279287
 21
310.1306594106
 31
0.0
  0
LINE
  5
27D
330
1F
100
AcDbEntity
  8
0
  6
Continuous
 62
     7
370
    15
100
AcDbLine
 10
447.6962292996
 20
325.1306590753
 30
0.0
 11
450.6962279287
 21
325.1306590753
 31
0.0
  0
LINE
  5
27E
330
1F
100
AcDbEntity
  8
0
  6
Continuous
 62
     7
370
    15
100
AcDbLine
 10
447.6962292996
 20
310.1306594106
 30
0.0
 11
447.6962292996
 21
325.1306590753
 31
0.0
  0
LINE
  5
27F
330
1F
100
AcDbEntity
  8
0
  6
Continuous
 62
     7
370
    15
100
AcDbLine
 10
437.4089673092
 20
277.0811299931
 30
0.0
 11
447.4089652231
 21
277.0811299931
 31
0.0
  0
LINE
  5
280
330
1F
100
AcDbEntity
  8
0
  6
Continuous
 62
     7
370
    15
100
AcDbLine
 10
437.4089673092
 20
278.0811300406
 30
0.0
 11
437.4089673092
 21
277.0811299931
 31
0.0
  0
LINE
  5
281
330
1F
100
AcDbEntity
  8
0
  6
Continuous
 62
     7
370
    15
100
AcDbLine
 10
426.9089683821
 20
278.0811300406
 30
0.0
 11
437.4089673092
 21
278.0811300406
 31
0.0
  0
LINE
  5
282
330
1F
100
AcDbEntity
  8
0
  6
Continuous
 62
     7
370
    15
100
AcDbLine
 10
426.9089683821
 20
277.0811299931
 30
0.0
 11
426.9089683821
 21
278.0811300406
 31
0.0
  0
LINE
  5
283
330
1F
100
AcDbEntity
  8
0
  6
Continuous
 62
     7
370
    15
100
AcDbLine
 10
416.9089630177
 20
277.0811299931
 30
0.0
 11
426.9089683821
 21
277.0811299931
 31
0.0
  0
LINE
  5
284
330
1F
100
AcDbEntity
  8
0
  6
Continuous
 62
     7
370
    15
100
AcDbLine
 10
416.9089630177
 20
292.0811296579
 30
0.0
 11
416.9089630177
 21
277.0811299931
 31
0.0
  0
LINE
  5
285
330
1F
100
AcDbEntity
  8
0
  6
Continuous
 62
     7
370
    15
100
AcDbLine
 10
413.9089643886
 20
292.0811296579
 30
0.0
 11
416.9089630177
 21
292.0811296579
 31
0.0
  0
LINE
  5
286
330
1F
100
AcDbEntity
  8
0
  6
Continuous
 62
     7
370
    15
100
AcDbLine
 10
413.9089643886
 20
277.0811299931
 30
0.0
 11
413.9089643886
 21
292.0811296579
 31
0.0
  0
LINE
  5
287
330
1F
100
AcDbEntity
  8
0
  6
Continuous
 62
     7
370
    15
100
AcDbLine
 10
403.9089664748
 20
277.0811299931
 30
0.0
 11
413.9089643886
 21
277.0811299931
 31
0.0
  0
LINE
  5
288
330
1F
100
AcDbEntity
  8
0
  6
Continuous
 62
     7
370
    15
100
AcDbLine
 10
403.9089664748
 20
278.0811300406
 30
0.0
 11
403.9089664748
 21
277.0811299931
 31
0.0
  0
LINE
  5
289
330
1F
100
AcDbEntity
  8
0
  6
Continuous
 62
     7
370
    15
100
AcDbLine
 10
393.4089675476
 20
278.0811300406
 30
0.0
 11
403.9089664748
 21
278.0811300406
 31
0.0
  0
LINE
  5
28A
330
1F
100
AcDbEntity
  8
0
  6
Continuous
 62
     7
370
    15
100
AcDbLine
 10
393.4089675476
 20
277.0811299931
 30
0.0
 11
393.4089675476
 21
278.0811300406
 31
0.0
  0
LINE
  5
28B
330
1F
100
AcDbEntity
  8
0
  6
Continuous
 62
     7
370
    15
100
AcDbLine
 10
383.4089659085
 20
277.0811299931
 30
0.0
 11
393.4089675476
 21
277.0811299931
 31
0.0
  0
LINE
  5
28C
330
1F
100
AcDbEntity
  8
0
  6
Continuous
 62
     7
370
    15
100
AcDbLine
 10
383.4089659085
 20
292.0811296579
 30
0.0
 11
383.4089659085
 21
277.0811299931
 31
0.0
  0
LINE
  5
28D
330
1F
100
AcDbEntity
  8
0
  6
Continuous
 62
     7
370
    15
100
AcDbLine
 10
380.4089672794
 20
292.0811296579
 30
0.0
 11
383.4089659085
 21
292.0811296579
 31
0.0
  0
LINE
  5
28E
330
1F
100
AcDbEntity
  8
0
  6
Continuous
 62
     7
370
    15
100
AcDbLine
 10
380.4089672794
 20
277.0811299931
 30
0.0
 11
380.4089672794
 21
292.0811296579
 31
0.0
  0
LINE
  5
28F
330
1F
100
AcDbEntity
  8
0
  6
Continuous
 62
     7
370
    15
100
AcDbLine
 10
370.4089656403
 20
277.0811299931
 30
0.0
 11
380.4089672794
 21
277.0811299931
 31
0.0
  0
LINE
  5
290
330
1F
100
AcDbEntity
  8
0
  6
Continuous
 62
     7
370
    15
100
AcDbLine
 10
370.4089656403
 20
278.0811300406
 30
0.0
 11
370.4089656403
 21
277.0811299931
 31
0.0
  0
LINE
  5
291
330
1F
100
AcDbEntity
  8
0
  6
Continuous
 62
     7
370
    15
100
AcDbLine
 10
359.9089657819
 20
278.0811300406
 30
0.0
 11
370.4089656403
 21
278.0811300406
 31
0.0
  0
LINE
  5
292
330
1F
100
AcDbEntity
  8
0
  6
Continuous
 62
     7
370
    15
100
AcDbLine
 10
359.9089657819
 20
277.0811299931
 30
0.0
 11
359.9089657819
 21
278.0811300406
 31
0.0
  0
LINE
  5
293
330
1F
100
AcDbEntity
  8
0
  6
Continuous
 62
     7
370
    15
100
AcDbLine
 10
349.9089657725
 20
277.0811299931
 30
0.0
 11
359.9089657819
 21
277.0811299931
 31
0.0
  0
LINE
  5
294
330
1F
100
AcDbEntity
  8
0
  6
Continuous
 62
     7
370
    15
100
AcDbLine
 10
349.9089657725
 20
307.0811293226
 30
0.0
 11
349.9089657725
 21
277.0811299931
 31
0.0
  0
LINE
  5
295
330
1F
100
AcDbEntity
  8
0
  6
Continuous
 62
     7
370
    15
100
AcDbLine
 10
514.4089594414
 20
307.0811293226
 30
0.0
 11
349.9089657725
 21
307.0811293226
 31
0.0
  0
LINE
  5
296
330
1F
100
AcDbEntity
  8
0
  6
Continuous
 62
     7
370
    15
100
AcDbLine
 10
514.4089594414
 20
277.0811299931
 30
0.0
 11
514.4089594414
 21
307.0811293226
 31
0.0
  0
LINE
  5
297
330
1F
100
AcDbEntity
  8
0
  6
Continuous
 62
     7
370
    15
100
AcDbLine
 10
504.4089689782
 20
277.0811299931
 30
0.0
 11
514.4089594414
 21
277.0811299931
 31
0.0
  0
LINE
  5
298
330
1F
100
AcDbEntity
  8
0
  6
Continuous
 62
     7
370
    15
100
AcDbLine
 10
504.4089689782
 20
278.0811300406
 30
0.0
 11
504.4089689782
 21
277.0811299931
 31
0.0
  0
LINE
  5
299
330
1F
100
AcDbEntity
  8
0
  6
Continuous
 62
     7
370
    15
100
AcDbLine
 10
493.908970051
 20
278.0811300406
 30
0.0
 11
504.4089689782
 21
278.0811300406
 31
0.0
  0
LINE
  5
29A
330
1F
100
AcDbEntity
  8
0
  6
Continuous
 62
     7
370
    15
100
AcDbLine
 10
493.908970051
 20
277.0811299931
 30
0.0
 11
493.908970051
 21
278.0811300406
 31
0.0
  0
LINE
  5
29B
330
1F
100
AcDbEntity
  8
0
  6
Continuous
 62
     7
370
    15
100
AcDbLine
 10
483.9089646866
 20
277.0811299931
 30
0.0
 11
493.908970051
 21
277.0811299931
 31
0.0
  0
LINE
  5
29C
330
1F
100
AcDbEntity
  8
0
  6
Continuous
 62
     7
370
    15
100
AcDbLine
 10
483.9089646866
 20
292.0811296579
 30
0.0
 11
483.9089646866
 21
277.0811299931
 31
0.0
  0
LINE
  5
29D
330
1F
100
AcDbEntity
  8
0
  6
Continuous
 62
     7
370
    15
100
AcDbLine
 10
480.9089586069
 20
292.0811296579
 30
0.0
 11
483.9089646866
 21
292.0811296579
 31
0.0
  0
LINE
  5
29E
330
1F
100
AcDbEntity
  8
0
  6
Continuous
 62
     7
370
    15
100
AcDbLine
 10
480.9089586069
 20
277.0811299931
 30
0.0
 11
480.9089586069
 21
292.0811296579
 31
0.0
  0
LINE
  5
29F
330
1F
100
AcDbEntity
  8
0
  6
Continuous
 62
     7
370
    15
100
AcDbLine
 10
470.9089681437
 20
277.0811299931
 30
0.0
 11
480.9089586069
 21
277.0811299931
 31
0.0
  0
LINE
  5
2A0
330
1F
100
AcDbEntity
  8
0
  6
Continuous
 62
     7
370
    15
100
AcDbLine
 10
470.9089681437
 20
278.0811300406
 30
0.0
 11
470.9089681437
 21
277.0811299931
 31
0.0
  0
LINE
  5
2A1
330
1F
100
AcDbEntity
  8
0
  6
Continuous
 62
     7
370
    15
100
AcDbLine
 10
460.4089692166
 20
278.0811300406
 30
0.0
 11
470.9089681437
 21
278.0811300406
 31
0.0
  0
LINE
  5
2A2
330
1F
100
AcDbEntity
  8
0
  6
Continuous
 62
     7
370
    15
100
AcDbLine
 10
460.4089692166
 20
277.0811299931
 30
0.0
 11
460.4089692166
 21
278.0811300406
 31
0.0
  0
LINE
  5
2A3
330
1F
100
AcDbEntity
  8
0
  6
Continuous
 62
     7
370
    15
100
AcDbLine
 10
450.4089638522
 20
277.0811299931
 30
0.0
 11
460.4089692166
 21
277.0811299931
 31
0.0
  0
LINE
  5
2A4
330
1F
100
AcDbEntity
  8
0
  6
Continuous
 62
     7
370
    15
100
AcDbLine
 10
450.4089638522
 20
292.0811296579
 30
0.0
 11
450.4089638522
 21
277.0811299931
 31
0.0
  0
LINE
  5
2A5
330
1F
100
AcDbEntity
  8
0
  6
Continuous
 62
     7
370
    15
100
AcDbLine
 10
447.4089652231
 20
292.0811296579
 30
0.0
 11
450.4089638522
 21
292.0811296579
 31
0.0
  0
LINE
  5
2A6
330
1F
100
AcDbEntity
  8
0
  6
Continuous
 62
     7
370
    15
100
AcDbLine
 10
447.4089652231
 20
277.0811299931
 30
0.0
 11
447.4089652231
 21
292.0811296579
 31
0.0
  0
LINE
  5
2A7
330
1F
100
AcDbEntity
  8
0
  6
Continuous
 62
     7
370
    15
100
AcDbLine
 10
159.3735898293
 20
245.0886768394
 30
0.0
 11
169.3735802925
 21
245.0886768394
 31
0.0
  0
LINE
  5
2A8
330
1F
100
AcDbEntity
  8
0
  6
Continuous
 62
     7
370
    15
100
AcDbLine
 10
159.3735898293
 20
246.0886770033
 30
0.0
 11
159.3735898293
 21
245.0886768394
 31
0.0
  0
LINE
  5
2A9
330
1F
100
AcDbEntity
  8
0
  6
Continuous
 62
     7
370
    15
100
AcDbLine
 10
148.8735909022
 20
246.0886770033
 30
0.0
 11
159.3735898293
 21
246.0886770033
 31
0.0
  0
LINE
  5
2AA
330
1F
100
AcDbEntity
  8
0
  6
Continuous
 62
     7
370
    15
100
AcDbLine
 10
148.8735909022
 20
245.0886768394
 30
0.0
 11
148.8735909022
 21
246.0886770033
 31
0.0
  0
LINE
  5
2AB
330
1F
100
AcDbEntity
  8
0
  6
Continuous
 62
     7
370
    15
100
AcDbLine
 10
142.3735851801
 20
245.0886768394
 30
0.0
 11
148.8735909022
 21
245.0886768394
 31
0.0
  0
LINE
  5
2AC
330
1F
100
AcDbEntity
  8
0
  6
Continuous
 62
     7
370
    15
100
AcDbLine
 10
142.3735851801
 20
242.0886763477
 30
0.0
 11
142.3735851801
 21
245.0886768394
 31
0.0
  0
LINE
  5
2AD
330
1F
100
AcDbEntity
  8
0
  6
Continuous
 62
     7
370
    15
100
AcDbLine
 10
138.8735855378
 20
242.0886763477
 30
0.0
 11
142.3735851801
 21
242.0886763477
 31
0.0
  0
LINE
  5
2AE
330
1F
100
AcDbEntity
  8
0
  6
Continuous
 62
     7
370
    15
100
AcDbLine
 10
138.8735855378
 20
260.0886765041
 30
0.0
 11
138.8735855378
 21
242.0886763477
 31
0.0
  0
LINE
  5
2AF
330
1F
100
AcDbEntity
  8
0
  6
Continuous
 62
     7
370
    15
100
AcDbLine
 10
135.8735794581
 20
260.0886765041
 30
0.0
 11
138.8735855378
 21
260.0886765041
 31
0.0
  0
LINE
  5
2B0
330
1F
100
AcDbEntity
  8
0
  6
Continuous
 62
     7
370
    15
100
AcDbLine
 10
135.8735794581
 20
242.0886763477
 30
0.0
 11
135.8735794581
 21
260.0886765041
 31
0.0
  0
LINE
  5
2B1
330
1F
100
AcDbEntity
  8
0
  6
Continuous
 62
     7
370
    15
100
AcDbLine
 10
132.3735798157
 20
242.0886763477
 30
0.0
 11
135.8735794581
 21
242.0886763477
 31
0.0
  0
LINE
  5
2B2
330
1F
100
AcDbEntity
  8
0
  6
Continuous
 62
     7
370
    15
100
AcDbLine
 10
132.3735798157
 20
245.0886768394
 30
0.0
 11
132.3735798157
 21
242.0886763477
 31
0.0
  0
LINE
  5
2B3
330
1F
100
AcDbEntity
  8
0
  6
Continuous
 62
     7
370
    15
100
AcDbLine
 10
125.8735889948
 20
245.0886768394
 30
0.0
 11
132.3735798157
 21
245.0886768394
 31
0.0
  0
LINE
  5
2B4
330
1F
100
AcDbEntity
  8
0
  6
Continuous
 62
     7
370
    15
100
AcDbLine
 10
125.8735889948
 20
246.0886770033
 30
0.0
 11
125.8735889948
 21
245.0886768394
 31
0.0
  0
LINE
  5
2B5
330
1F
100
AcDbEntity
  8
0
  6
Continuous
 62
     7
370
    15
100
AcDbLine
 10
115.3735900677
 20
246.0886770033
 30
0.0
 11
125.8735889948
 21
246.0886770033
 31
0.0
  0
LINE
  5
2B6
330
1F
100
AcDbEntity
  8
0
  6
Continuous
 62
     7
370
    15
100
AcDbLine
 10
115.3735900677
 20
245.0886768394
 30
0.0
 11
115.3735900677
 21
246.0886770033
 31
0.0
  0
LINE
  5
2B7
330
1F
100
AcDbEntity
  8
0
  6
Continuous
 62
     7
370
    15
100
AcDbLine
 10
108.8735843457
 20
245.0886768394
 30
0.0
 11
115.3735900677
 21
245.0886768394
 31
0.0
  0
LINE
  5
2B8
330
1F
100
AcDbEntity
  8
0
  6
Continuous
 62
     7
370
    15
100
AcDbLine
 10
108.8735843457
 20
242.0886763477
 30
0.0
 11
108.8735843457
 21
245.0886768394
 31
0.0
  0
LINE
  5
2B9
330
1F
100
AcDbEntity
  8
0
  6
Continuous
 62
     7
370
    15
100
AcDbLine
 10
105.3735847033
 20
242.0886763477
 30
0.0
 11
108.8735843457
 21
242.0886763477
 31
0.0
  0
LINE
  5
2BA
330
1F
100
AcDbEntity
  8
0
  6
Continuous
 62
     7
370
    15
100
AcDbLine
 10
105.3735847033
 20
260.0886765041
 30
0.0
 11
105.3735847033
 21
242.0886763477
 31
0.0
  0
LINE
  5
2BB
330
1F
100
AcDbEntity
  8
0
  6
Continuous
 62
     7
370
    15
100
AcDbLine
 10
102.3735786236
 20
260.0886765041
 30
0.0
 11
105.3735847033
 21
260.0886765041
 31
0.0
  0
LINE
  5
2BC
330
1F
100
AcDbEntity
  8
0
  6
Continuous
 62
     7
370
    15
100
AcDbLine
 10
102.3735786236
 20
242.0886763477
 30
0.0
 11
102.3735786236
 21
260.0886765041
 31
0.0
  0
LINE
  5
2BD
330
1F
100
AcDbEntity
  8
0
  6
Continuous
 62
     7
370
    15
100
AcDbLine
 10
98.8735789812
 20
242.0886763477
 30
0.0
 11
102.3735786236
 21
242.0886763477
 31
0.0
  0
LINE
  5
2BE
330
1F
100
AcDbEntity
  8
0
  6
Continuous
 62
     7
370
    15
100
AcDbLine
 10
98.8735789812
 20
245.0886768394
 30
0.0
 11
98.8735789812
 21
242.0886763477
 31
0.0
  0
LINE
  5
2BF
330
1F
100
AcDbEntity
  8
0
  6
Continuous
 62
     7
370
    15
100
AcDbLine
 10
92.3735881604
 20
245.0886768394
 30
0.0
 11
98.8735789812
 21
245.0886768394
 31
0.0
  0
LINE
  5
2C0
330
1F
100
AcDbEntity
  8
0
  6
Continuous
 62
     7
370
    15
100
AcDbLine
 10
92.3735881604
 20
246.0886770033
 30
0.0
 11
92.3735881604
 21
245.0886768394
 31
0.0
  0
LINE
  5
2C1
330
1F
100
AcDbEntity
  8
0
  6
Continuous
 62
     7
370
    15
100
AcDbLine
 10
81.8735743321
 20
246.0886770033
 30
0.0
 11
92.3735881604
 21
246.0886770033
 31
0.0
  0
LINE
  5
2C2
330
1F
100
AcDbEntity
  8
0
  6
Continuous
 62
     7
370
    15
100
AcDbLine
 10
81.8735743321
 20
245.0886768394
 30
0.0
 11
81.8735743321
 21
246.0886770033
 31
0.0
  0
LINE
  5
2C3
330
1F
100
AcDbEntity
  8
0
  6
Continuous
 62
     7
370
    15
100
AcDbLine
 10
75.3735984124
 20
245.0886768394
 30
0.0
 11
81.8735743321
 21
245.0886768394
 31
0.0
  0
LINE
  5
2C4
330
1F
100
AcDbEntity
  8
0
  6
Continuous
 62
     7
370
    15
100
AcDbLine
 10
75.3735984124
 20
242.0886763477
 30
0.0
 11
75.3735984124
 21
245.0886768394
 31
0.0
  0
LINE
  5
2C5
330
1F
100
AcDbEntity
  8
0
  6
Continuous
 62
     7
370
    15
100
AcDbLine
 10
71.8735838688
 20
242.0886763477
 30
0.0
 11
75.3735984124
 21
242.0886763477
 31
0.0
  0
LINE
  5
2C6
330
1F
100
AcDbEntity
  8
0
  6
Continuous
 62
     7
370
    15
100
AcDbLine
 10
71.8735838688
 20
260.0886765041
 30
0.0
 11
71.8735838688
 21
242.0886763477
 31
0.0
  0
LINE
  5
2C7
330
1F
100
AcDbEntity
  8
0
  6
Continuous
 62
     7
370
    15
100
AcDbLine
 10
68.8735926903
 20
260.0886765041
 30
0.0
 11
71.8735838688
 21
260.0886765041
 31
0.0
  0
LINE
  5
2C8
330
1F
100
AcDbEntity
  8
0
  6
Continuous
 62
     7
370
    15
100
AcDbLine
 10
68.8735926903
 20
242.0886763477
 30
0.0
 11
68.8735926903
 21
260.0886765041
 31
0.0
  0
LINE
  5
2C9
330
1F
100
AcDbEntity
  8
0
  6
Continuous
 62
     7
370
    15
100
AcDbLine
 10
65.3735781468
 20
242.0886763477
 30
0.0
 11
68.8735926903
 21
242.0886763477
 31
0.0
  0
LINE
  5
2CA
330
1F
100
AcDbEntity
  8
0
  6
Continuous
 62
     7
370
    15
100
AcDbLine
 10
65.3735781468
 20
245.0886768394
 30
0.0
 11
65.3735781468
 21
242.0886763477
 31
0.0
  0
LINE
  5
2CB
330
1F
100
AcDbEntity
  8
0
  6
Continuous
 62
     7
370
    15
100
AcDbLine
 10
58.8735724247
 20
245.0886768394
 30
0.0
 11
65.3735781468
 21
245.0886768394
 31
0.0
  0
LINE
  5
2CC
330
1F
100
AcDbEntity
  8
0
  6
Continuous
 62
     7
370
    15
100
AcDbLine
 10
58.8735724247
 20
246.0886770033
 30
0.0
 11
58.8735724247
 21
245.0886768394
 31
0.0
  0
LINE
  5
2CD
330
1F
100
AcDbEntity
  8
0
  6
Continuous
 62
     7
370
    15
100
AcDbLine
 10
48.3735883988
 20
246.0886770033
 30
0.0
 11
58.8735724247
 21
246.0886770033
 31
0.0
  0
LINE
  5
2CE
330
1F
100
AcDbEntity
  8
0
  6
Continuous
 62
     7
370
    15
100
AcDbLine
 10
48.3735883988
 20
245.0886768394
 30
0.0
 11
48.3735883988
 21
246.0886770033
 31
0.0
  0
LINE
  5
2CF
330
1F
100
AcDbEntity
  8
0
  6
Continuous
 62
     7
370
    15
100
AcDbLine
 10
41.8735826767
 20
245.0886768394
 30
0.0
 11
48.3735883988
 21
245.0886768394
 31
0.0
  0
LINE
  5
2D0
330
1F
100
AcDbEntity
  8
0
  6
Continuous
 62
     7
370
    15
100
AcDbLine
 10
41.8735826767
 20
242.0886763477
 30
0.0
 11
41.8735826767
 21
245.0886768394
 31
0.0
  0
LINE
  5
2D1
330
1F
100
AcDbEntity
  8
0
  6
Continuous
 62
     7
370
    15
100
AcDbLine
 10
38.3735979355
 20
242.0886763477
 30
0.0
 11
41.8735826767
 21
242.0886763477
 31
0.0
  0
LINE
  5
2D2
330
1F
100
AcDbEntity
  8
0
  6
Continuous
 62
     7
370
    15
100
AcDbLine
 10
38.3735979355
 20
260.0886765041
 30
0.0
 11
38.3735979355
 21
242.0886763477
 31
0.0
  0
LINE
  5
2D3
330
1F
100
AcDbEntity
  8
0
  6
Continuous
 62
     7
370
    15
100
AcDbLine
 10
35.3735769547
 20
260.0886765041
 30
0.0
 11
38.3735979355
 21
260.0886765041
 31
0.0
  0
LINE
  5
2D4
330
1F
100
AcDbEntity
  8
0
  6
Continuous
 62
     7
370
    15
100
AcDbLine
 10
35.3735769547
 20
242.0886763477
 30
0.0
 11
35.3735769547
 21
260.0886765041
 31
0.0
  0
LINE
  5
2D5
330
1F
100
AcDbEntity
  8
0
  6
Continuous
 62
     7
370
    15
100
AcDbLine
 10
31.8735922135
 20
242.0886763477
 30
0.0
 11
35.3735769547
 21
242.0886763477
 31
0.0
  0
LINE
  5
2D6
330
1F
100
AcDbEntity
  8
0
  6
Continuous
 62
     7
370
    15
100
AcDbLine
 10
31.8735922135
 20
245.0886768394
 30
0.0
 11
31.8735922135
 21
242.0886763477
 31
0.0
  0
LINE
  5
2D7
330
1F
100
AcDbEntity
  8
0
  6
Continuous
 62
     7
370
    15
100
AcDbLine
 10
25.3735864914
 20
245.0886768394
 30
0.0
 11
31.8735922135
 21
245.0886768394
 31
0.0
  0
LINE
  5
2D8
330
1F
100
AcDbEntity
  8
0
  6
Continuous
 62
     7
370
    15
100
AcDbLine
 10
25.3735864914
 20
246.0886770033
 30
0.0
 11
25.3735864914
 21
245.0886768394
 31
0.0
  0
LINE
  5
2D9
330
1F
100
AcDbEntity
  8
0
  6
Continuous
 62
     7
370
    15
100
AcDbLine
 10
14.8735726632
 20
246.0886770033
 30
0.0
 11
25.3735864914
 21
246.0886770033
 31
0.0
  0
LINE
  5
2DA
330
1F
100
AcDbEntity
  8
0
  6
Continuous
 62
     7
370
    15
100
AcDbLine
 10
14.8735726632
 20
245.0886768394
 30
0.0
 11
14.8735726632
 21
246.0886770033
 31
0.0
  0
LINE
  5
2DB
330
1F
100
AcDbEntity
  8
0
  6
Continuous
 62
     7
370
    15
100
AcDbLine
 10
4.8735821999
 20
245.0886768394
 30
0.0
 11
14.8735726632
 21
245.0886768394
 31
0.0
  0
LINE
  5
2DC
330
1F
100
AcDbEntity
  8
0
  6
Continuous
 62
     7
370
    15
100
AcDbLine
 10
1.8735910214
 20
275.0886768655
 30
0.0
 11
1.8735910214
 21
260.0886765041
 31
0.0
  0
LINE
  5
2DD
330
1F
100
AcDbEntity
  8
0
  6
Continuous
 62
     7
370
    15
100
AcDbLine
 10
172.3735863722
 20
275.0886768655
 30
0.0
 11
1.8735910214
 21
275.0886768655
 31
0.0
  0
LINE
  5
2DE
330
1F
100
AcDbEntity
  8
0
  6
Continuous
 62
     7
370
    15
100
AcDbLine
 10
172.3735863722
 20
260.0886765041
 30
0.0
 11
172.3735863722
 21
275.0886768655
 31
0.0
  0
LINE
  5
2DF
330
1F
100
AcDbEntity
  8
0
  6
Continuous
 62
     7
370
    15
100
AcDbLine
 10
169.3735802925
 20
260.0886765041
 30
0.0
 11
172.3735863722
 21
260.0886765041
 31
0.0
  0
LINE
  5
2E0
330
1F
100
AcDbEntity
  8
0
  6
Continuous
 62
     7
370
    15
100
AcDbLine
 10
1.8735910214
 20
260.0886765041
 30
0.0
 11
4.8735821999
 21
260.0886765041
 31
0.0
  0
LINE
  5
2E1
330
1F
100
AcDbEntity
  8
0
  6
Continuous
 62
     7
370
    15
100
AcDbLine
 10
169.3735802925
 20
245.0886768394
 30
0.0
 11
169.3735802925
 21
260.0886765041
 31
0.0
  0
LINE
  5
2E2
330
1F
100
AcDbEntity
  8
0
  6
Continuous
 62
     7
370
    15
100
AcDbLine
 10
4.8735821999
 20
260.0886765041
 30
0.0
 11
4.8735821999
 21
245.0886768394
 31
0.0
  0
LINE
  5
2E3
330
1F
100
AcDbEntity
  8
0
  6
Continuous
 62
     7
370
    15
100
AcDbLine
 10
332.1919879149
 20
245.0886768394
 30
0.0
 11
342.1919783782
 21
245.0886768394
 31
0.0
  0
LINE
  5
2E4
330
1F
100
AcDbEntity
  8
0
  6
Continuous
 62
     7
370
    15
100
AcDbLine
 10
332.1919879149
 20
246.0886770033
 30
0.0
 11
332.1919879149
 21
245.0886768394
 31
0.0
  0
LINE
  5
2E5
330
1F
100
AcDbEntity
  8
0
  6
Continuous
 62
     7
370
    15
100
AcDbLine
 10
321.6919889878
 20
246.0886770033
 30
0.0
 11
332.1919879149
 21
246.0886770033
 31
0.0
  0
LINE
  5
2E6
330
1F
100
AcDbEntity
  8
0
  6
Continuous
 62
     7
370
    15
100
AcDbLine
 10
321.6919889878
 20
245.0886768394
 30
0.0
 11
321.6919889878
 21
246.0886770033
 31
0.0
  0
LINE
  5
2E7
330
1F
100
AcDbEntity
  8
0
  6
Continuous
 62
     7
370
    15
100
AcDbLine
 10
315.1919832658
 20
245.0886768394
 30
0.0
 11
321.6919889878
 21
245.0886768394
 31
0.0
  0
LINE
  5
2E8
330
1F
100
AcDbEntity
  8
0
  6
Continuous
 62
     7
370
    15
100
AcDbLine
 10
315.1919832658
 20
242.0886763477
 30
0.0
 11
315.1919832658
 21
245.0886768394
 31
0.0
  0
LINE
  5
2E9
330
1F
100
AcDbEntity
  8
0
  6
Continuous
 62
     7
370
    15
100
AcDbLine
 10
311.6919836234
 20
242.0886763477
 30
0.0
 11
315.1919832658
 21
242.0886763477
 31
0.0
  0
LINE
  5
2EA
330
1F
100
AcDbEntity
  8
0
  6
Continuous
 62
     7
370
    15
100
AcDbLine
 10
311.6919836234
 20
260.0886765041
 30
0.0
 11
311.6919836234
 21
242.0886763477
 31
0.0
  0
LINE
  5
2EB
330
1F
100
AcDbEntity
  8
0
  6
Continuous
 62
     7
370
    15
100
AcDbLine
 10
308.6919775437
 20
260.0886765041
 30
0.0
 11
311.6919836234
 21
260.0886765041
 31
0.0
  0
LINE
  5
2EC
330
1F
100
AcDbEntity
  8
0
  6
Continuous
 62
     7
370
    15
100
AcDbLine
 10
308.6919775437
 20
242.0886763477
 30
0.0
 11
308.6919775437
 21
260.0886765041
 31
0.0
  0
LINE
  5
2ED
330
1F
100
AcDbEntity
  8
0
  6
Continuous
 62
     7
370
    15
100
AcDbLine
 10
305.1919779014
 20
242.0886763477
 30
0.0
 11
308.6919775437
 21
242.0886763477
 31
0.0
  0
LINE
  5
2EE
330
1F
100
AcDbEntity
  8
0
  6
Continuous
 62
     7
370
    15
100
AcDbLine
 10
305.1919779014
 20
245.0886768394
 30
0.0
 11
305.1919779014
 21
242.0886763477
 31
0.0
  0
LINE
  5
2EF
330
1F
100
AcDbEntity
  8
0
  6
Continuous
 62
     7
370
    15
100
AcDbLine
 10
298.6919870805
 20
245.0886768394
 30
0.0
 11
305.1919779014
 21
245.0886768394
 31
0.0
  0
LINE
  5
2F0
330
1F
100
AcDbEntity
  8
0
  6
Continuous
 62
     7
370
    15
100
AcDbLine
 10
298.6919870805
 20
246.0886770033
 30
0.0
 11
298.6919870805
 21
245.0886768394
 31
0.0
  0
LINE
  5
2F1
330
1F
100
AcDbEntity
  8
0
  6
Continuous
 62
     7
370
    15
100
AcDbLine
 10
288.1919881534
 20
246.0886770033
 30
0.0
 11
298.6919870805
 21
246.0886770033
 31
0.0
  0
LINE
  5
2F2
330
1F
100
AcDbEntity
  8
0
  6
Continuous
 62
     7
370
    15
100
AcDbLine
 10
288.1919881534
 20
245.0886768394
 30
0.0
 11
288.1919881534
 21
246.0886770033
 31
0.0
  0
LINE
  5
2F3
330
1F
100
AcDbEntity
  8
0
  6
Continuous
 62
     7
370
    15
100
AcDbLine
 10
281.6919824313
 20
245.0886768394
 30
0.0
 11
288.1919881534
 21
245.0886768394
 31
0.0
  0
LINE
  5
2F4
330
1F
100
AcDbEntity
  8
0
  6
Continuous
 62
     7
370
    15
100
AcDbLine
 10
281.6919824313
 20
242.0886763477
 30
0.0
 11
281.6919824313
 21
245.0886768394
 31
0.0
  0
LINE
  5
2F5
330
1F
100
AcDbEntity
  8
0
  6
Continuous
 62
     7
370
    15
100
AcDbLine
 10
278.1919827889
 20
242.0886763477
 30
0.0
 11
281.6919824313
 21
242.0886763477
 31
0.0
  0
LINE
  5
2F6
330
1F
100
AcDbEntity
  8
0
  6
Continuous
 62
     7
370
    15
100
AcDbLine
 10
278.1919827889
 20
260.0886765041
 30
0.0
 11
278.1919827889
 21
242.0886763477
 31
0.0
  0
LINE
  5
2F7
330
1F
100
AcDbEntity
  8
0
  6
Continuous
 62
     7
370
    15
100
AcDbLine
 10
275.1919767093
 20
260.0886765041
 30
0.0
 11
278.1919827889
 21
260.0886765041
 31
0.0
  0
LINE
  5
2F8
330
1F
100
AcDbEntity
  8
0
  6
Continuous
 62
     7
370
    15
100
AcDbLine
 10
275.1919767093
 20
242.0886763477
 30
0.0
 11
275.1919767093
 21
260.0886765041
 31
0.0
  0
LINE
  5
2F9
330
1F
100
AcDbEntity
  8
0
  6
Continuous
 62
     7
370
    15
100
AcDbLine
 10
271.6919770669
 20
242.0886763477
 30
0.0
 11
275.1919767093
 21
242.0886763477
 31
0.0
  0
LINE
  5
2FA
330
1F
100
AcDbEntity
  8
0
  6
Continuous
 62
     7
370
    15
100
AcDbLine
 10
271.6919770669
 20
245.0886768394
 30
0.0
 11
271.6919770669
 21
242.0886763477
 31
0.0
  0
LINE
  5
2FB
330
1F
100
AcDbEntity
  8
0
  6
Continuous
 62
     7
370
    15
100
AcDbLine
 10
265.191986246
 20
245.0886768394
 30
0.0
 11
271.6919770669
 21
245.0886768394
 31
0.0
  0
LINE
  5
2FC
330
1F
100
AcDbEntity
  8
0
  6
Continuous
 62
     7
370
    15
100
AcDbLine
 10
265.191986246
 20
246.0886770033
 30
0.0
 11
265.191986246
 21
245.0886768394
 31
0.0
  0
LINE
  5
2FD
330
1F
100
AcDbEntity
  8
0
  6
Continuous
 62
     7
370
    15
100
AcDbLine
 10
254.6919724177
 20
246.0886770033
 30
0.0
 11
265.191986246
 21
246.0886770033
 31
0.0
  0
LINE
  5
2FE
330
1F
100
AcDbEntity
  8
0
  6
Continuous
 62
     7
370
    15
100
AcDbLine
 10
254.6919724177
 20
245.0886768394
 30
0.0
 11
254.6919724177
 21
246.0886770033
 31
0.0
  0
LINE
  5
2FF
330
1F
100
AcDbEntity
  8
0
  6
Continuous
 62
     7
370
    15
100
AcDbLine
 10
248.191996498
 20
245.0886768394
 30
0.0
 11
254.6919724177
 21
245.0886768394
 31
0.0
  0
LINE
  5
300
330
1F
100
AcDbEntity
  8
0
  6
Continuous
 62
     7
370
    15
100
AcDbLine
 10
248.191996498
 20
242.0886763477
 30
0.0
 11
248.191996498
 21
245.0886768394
 31
0.0
  0
LINE
  5
301
330
1F
100
AcDbEntity
  8
0
  6
Continuous
 62
     7
370
    15
100
AcDbLine
 10
244.6919819545
 20
242.0886763477
 30
0.0
 11
248.191996498
 21
242.0886763477
 31
0.0
  0
LINE
  5
302
330
1F
100
AcDbEntity
  8
0
  6
Continuous
 62
     7
370
    15
100
AcDbLine
 10
244.6919819545
 20
260.0886765041
 30
0.0
 11
244.6919819545
 21
242.0886763477
 31
0.0
  0
LINE
  5
303
330
1F
100
AcDbEntity
  8
0
  6
Continuous
 62
     7
370
    15
100
AcDbLine
 10
241.691990776
 20
260.0886765041
 30
0.0
 11
244.6919819545
 21
260.0886765041
 31
0.0
  0
LINE
  5
304
330
1F
100
AcDbEntity
  8
0
  6
Continuous
 62
     7
370
    15
100
AcDbLine
 10
241.691990776
 20
242.0886763477
 30
0.0
 11
241.691990776
 21
260.0886765041
 31
0.0
  0
LINE
  5
305
330
1F
100
AcDbEntity
  8
0
  6
Continuous
 62
     7
370
    15
100
AcDbLine
 10
238.1919762324
 20
242.0886763477
 30
0.0
 11
241.691990776
 21
242.0886763477
 31
0.0
  0
LINE
  5
306
330
1F
100
AcDbEntity
  8
0
  6
Continuous
 62
     7
370
    15
100
AcDbLine
 10
238.1919762324
 20
245.0886768394
 30
0.0
 11
238.1919762324
 21
242.0886763477
 31
0.0
  0
LINE
  5
307
330
1F
100
AcDbEntity
  8
0
  6
Continuous
 62
     7
370
    15
100
AcDbLine
 10
231.6919705104
 20
245.0886768394
 30
0.0
 11
238.1919762324
 21
245.0886768394
 31
0.0
  0
LINE
  5
308
330
1F
100
AcDbEntity
  8
0
  6
Continuous
 62
     7
370
    15
100
AcDbLine
 10
231.6919705104
 20
246.0886770033
 30
0.0
 11
231.6919705104
 21
245.0886768394
 31
0.0
  0
LINE
  5
309
330
1F
100
AcDbEntity
  8
0
  6
Continuous
 62
     7
370
    15
100
AcDbLine
 10
221.1919864844
 20
246.0886770033
 30
0.0
 11
231.6919705104
 21
246.0886770033
 31
0.0
  0
LINE
  5
30A
330
1F
100
AcDbEntity
  8
0
  6
Continuous
 62
     7
370
    15
100
AcDbLine
 10
221.1919864844
 20
245.0886768394
 30
0.0
 11
221.1919864844
 21
246.0886770033
 31
0.0
  0
LINE
  5
30B
330
1F
100
AcDbEntity
  8
0
  6
Continuous
 62
     7
370
    15
100
AcDbLine
 10
214.6919807624
 20
245.0886768394
 30
0.0
 11
221.1919864844
 21
245.0886768394
 31
0.0
  0
LINE
  5
30C
330
1F
100
AcDbEntity
  8
0
  6
Continuous
 62
     7
370
    15
100
AcDbLine
 10
214.6919807624
 20
242.0886763477
 30
0.0
 11
214.6919807624
 21
245.0886768394
 31
0.0
  0
LINE
  5
30D
330
1F
100
AcDbEntity
  8
0
  6
Continuous
 62
     7
370
    15
100
AcDbLine
 10
211.1919960212
 20
242.0886763477
 30
0.0
 11
214.6919807624
 21
242.0886763477
 31
0.0
  0
LINE
  5
30E
330
1F
100
AcDbEntity
  8
0
  6
Continuous
 62
     7
370
    15
100
AcDbLine
 10
211.1919960212
 20
260.0886765041
 30
0.0
 11
211.1919960212
 21
242.0886763477
 31
0.0
  0
LINE
  5
30F
330
1F
100
AcDbEntity
  8
0
  6
Continuous
 62
     7
370
    15
100
AcDbLine
 10
208.1919750403
 20
260.0886765041
 30
0.0
 11
211.1919960212
 21
260.0886765041
 31
0.0
  0
LINE
  5
310
330
1F
100
AcDbEntity
  8
0
  6
Continuous
 62
     7
370
    15
100
AcDbLine
 10
208.1919750403
 20
242.0886763477
 30
0.0
 11
208.1919750403
 21
260.0886765041
 31
0.0
  0
LINE
  5
311
330
1F
100
AcDbEntity
  8
0
  6
Continuous
 62
     7
370
    15
100
AcDbLine
 10
204.6919902991
 20
242.0886763477
 30
0.0
 11
208.1919750403
 21
242.0886763477
 31
0.0
  0
LINE
  5
312
330
1F
100
AcDbEntity
  8
0
  6
Continuous
 62
     7
370
    15
100
AcDbLine
 10
204.6919902991
 20
245.0886768394
 30
0.0
 11
204.6919902991
 21
242.0886763477
 31
0.0
  0
LINE
  5
313
330
1F
100
AcDbEntity
  8
0
  6
Continuous
 62
     7
370
    15
100
AcDbLine
 10
198.1919845771
 20
245.0886768394
 30
0.0
 11
204.6919902991
 21
245.0886768394
 31
0.0
  0
LINE
  5
314
330
1F
100
AcDbEntity
  8
0
  6
Continuous
 62
     7
370
    15
100
AcDbLine
 10
198.1919845771
 20
246.0886770033
 30
0.0
 11
198.1919845771
 21
245.0886768394
 31
0.0
  0
LINE
  5
315
330
1F
100
AcDbEntity
  8
0
  6
Continuous
 62
     7
370
    15
100
AcDbLine
 10
187.6919707488
 20
246.0886770033
 30
0.0
 11
198.1919845771
 21
246.0886770033
 31
0.0
  0
LINE
  5
316
330
1F
100
AcDbEntity
  8
0
  6
Continuous
 62
     7
370
    15
100
AcDbLine
 10
187.6919707488
 20
245.0886768394
 30
0.0
 11
187.6919707488
 21
246.0886770033
 31
0.0
  0
LINE
  5
317
330
1F
100
AcDbEntity
  8
0
  6
Continuous
 62
     7
370
    15
100
AcDbLine
 10
177.6919802855
 20
245.0886768394
 30
0.0
 11
187.6919707488
 21
245.0886768394
 31
0.0
  0
LINE
  5
318
330
1F
100
AcDbEntity
  8
0
  6
Continuous
 62
     7
370
    15
100
AcDbLine
 10
174.691989107
 20
275.0886768655
 30
0.0
 11
174.691989107
 21
260.0886765041
 31
0.0
  0
LINE
  5
319
330
1F
100
AcDbEntity
  8
0
  6
Continuous
 62
     7
370
    15
100
AcDbLine
 10
345.1919844579
 20
275.0886768655
 30
0.0
 11
174.691989107
 21
275.0886768655
 31
0.0
  0
LINE
  5
31A
330
1F
100
AcDbEntity
  8
0
  6
Continuous
 62
     7
370
    15
100
AcDbLine
 10
345.1919844579
 20
260.0886765041
 30
0.0
 11
345.1919844579
 21
275.0886768655
 31
0.0
  0
LINE
  5
31B
330
1F
100
AcDbEntity
  8
0
  6
Continuous
 62
     7
370
    15
100
AcDbLine
 10
342.1919783782
 20
260.0886765041
 30
0.0
 11
345.1919844579
 21
260.0886765041
 31
0.0
  0
LINE
  5
31C
330
1F
100
AcDbEntity
  8
0
  6
Continuous
 62
     7
370
    15
100
AcDbLine
 10
174.691989107
 20
260.0886765041
 30
0.0
 11
177.6919802855
 21
260.0886765041
 31
0.0
  0
LINE
  5
31D
330
1F
100
AcDbEntity
  8
0
  6
Continuous
 62
     7
370
    15
100
AcDbLine
 10
342.1919783782
 20
245.0886768394
 30
0.0
 11
342.1919783782
 21
260.0886765041
 31
0.0
  0
LINE
  5
31E
330
1F
100
AcDbEntity
  8
0
  6
Continuous
 62
     7
370
    15
100
AcDbLine
 10
177.6919802855
 20
260.0886765041
 30
0.0
 11
177.6919802855
 21
245.0886768394
 31
0.0
  0
LINE
  5
31F
330
1F
100
AcDbEntity
  8
0
  6
Continuous
 62
     7
370
    15
100
AcDbLine
 10
504.1995362747
 20
244.9839597095
 30
0.0
 11
514.1995267379
 21
244.9839597095
 31
0.0
  0
LINE
  5
320
330
1F
100
AcDbEntity
  8
0
  6
Continuous
 62
     7
370
    15
100
AcDbLine
 10
504.1995362747
 20
245.9839598734
 30
0.0
 11
504.1995362747
 21
244.9839597095
 31
0.0
  0
LINE
  5
321
330
1F
100
AcDbEntity
  8
0
  6
Continuous
 62
     7
370
    15
100
AcDbLine
 10
493.6995373475
 20
245.9839598734
 30
0.0
 11
504.1995362747
 21
245.9839598734
 31
0.0
  0
LINE
  5
322
330
1F
100
AcDbEntity
  8
0
  6
Continuous
 62
     7
370
    15
100
AcDbLine
 10
493.6995373475
 20
244.9839597095
 30
0.0
 11
493.6995373475
 21
245.9839598734
 31
0.0
  0
LINE
  5
323
330
1F
100
AcDbEntity
  8
0
  6
Continuous
 62
     7
370
    15
100
AcDbLine
 10
487.1995316255
 20
244.9839597095
 30
0.0
 11
493.6995373475
 21
244.9839597095
 31
0.0
  0
LINE
  5
324
330
1F
100
AcDbEntity
  8
0
  6
Continuous
 62
     7
370
    15
100
AcDbLine
 10
487.1995316255
 20
241.9839592178
 30
0.0
 11
487.1995316255
 21
244.9839597095
 31
0.0
  0
LINE
  5
325
330
1F
100
AcDbEntity
  8
0
  6
Continuous
 62
     7
370
    15
100
AcDbLine
 10
483.6995319831
 20
241.9839592178
 30
0.0
 11
487.1995316255
 21
241.9839592178
 31
0.0
  0
LINE
  5
326
330
1F
100
AcDbEntity
  8
0
  6
Continuous
 62
     7
370
    15
100
AcDbLine
 10
483.6995319831
 20
259.9839593742
 30
0.0
 11
483.6995319831
 21
241.9839592178
 31
0.0
  0
LINE
  5
327
330
1F
100
AcDbEntity
  8
0
  6
Continuous
 62
     7
370
    15
100
AcDbLine
 10
480.6995259034
 20
259.9839593742
 30
0.0
 11
483.6995319831
 21
259.9839593742
 31
0.0
  0
LINE
  5
328
330
1F
100
AcDbEntity
  8
0
  6
Continuous
 62
     7
370
    15
100
AcDbLine
 10
480.6995259034
 20
241.9839592178
 30
0.0
 11
480.6995259034
 21
259.9839593742
 31
0.0
  0
LINE
  5
329
330
1F
100
AcDbEntity
  8
0
  6
Continuous
 62
     7
370
    15
100
AcDbLine
 10
477.1995262611
 20
241.9839592178
 30
0.0
 11
480.6995259034
 21
241.9839592178
 31
0.0
  0
LINE
  5
32A
330
1F
100
AcDbEntity
  8
0
  6
Continuous
 62
     7
370
    15
100
AcDbLine
 10
477.1995262611
 20
244.9839597095
 30
0.0
 11
477.1995262611
 21
241.9839592178
 31
0.0
  0
LINE
  5
32B
330
1F
100
AcDbEntity
  8
0
  6
Continuous
 62
     7
370
    15
100
AcDbLine
 10
470.6995354402
 20
244.9839597095
 30
0.0
 11
477.1995262611
 21
244.9839597095
 31
0.0
  0
LINE
  5
32C
330
1F
100
AcDbEntity
  8
0
  6
Continuous
 62
     7
370
    15
100
AcDbLine
 10
470.6995354402
 20
245.9839598734
 30
0.0
 11
470.6995354402
 21
244.9839597095
 31
0.0
  0
LINE
  5
32D
330
1F
100
AcDbEntity
  8
0
  6
Continuous
 62
     7
370
    15
100
AcDbLine
 10
460.1995365131
 20
245.9839598734
 30
0.0
 11
470.6995354402
 21
245.9839598734
 31
0.0
  0
LINE
  5
32E
330
1F
100
AcDbEntity
  8
0
  6
Continuous
 62
     7
370
    15
100
AcDbLine
 10
460.1995365131
 20
244.9839597095
 30
0.0
 11
460.1995365131
 21
245.9839598734
 31
0.0
  0
LINE
  5
32F
330
1F
100
AcDbEntity
  8
0
  6
Continuous
 62
     7
370
    15
100
AcDbLine
 10
453.699530791
 20
244.9839597095
 30
0.0
 11
460.1995365131
 21
244.9839597095
 31
0.0
  0
LINE
  5
330
330
1F
100
AcDbEntity
  8
0
  6
Continuous
 62
     7
370
    15
100
AcDbLine
 10
453.699530791
 20
241.9839592178
 30
0.0
 11
453.699530791
 21
244.9839597095
 31
0.0
  0
LINE
  5
331
330
1F
100
AcDbEntity
  8
0
  6
Continuous
 62
     7
370
    15
100
AcDbLine
 10
450.1995311487
 20
241.9839592178
 30
0.0
 11
453.699530791
 21
241.9839592178
 31
0.0
  0
LINE
  5
332
330
1F
100
AcDbEntity
  8
0
  6
Continuous
 62
     7
370
    15
100
AcDbLine
 10
450.1995311487
 20
259.9839593742
 30
0.0
 11
450.1995311487
 21
241.9839592178
 31
0.0
  0
LINE
  5
333
330
1F
100
AcDbEntity
  8
0
  6
Continuous
 62
     7
370
    15
100
AcDbLine
 10
447.199525069
 20
259.9839593742
 30
0.0
 11
450.1995311487
 21
259.9839593742
 31
0.0
  0
LINE
  5
334
330
1F
100
AcDbEntity
  8
0
  6
Continuous
 62
     7
370
    15
100
AcDbLine
 10
447.199525069
 20
241.9839592178
 30
0.0
 11
447.199525069
 21
259.9839593742
 31
0.0
  0
LINE
  5
335
330
1F
100
AcDbEntity
  8
0
  6
Continuous
 62
     7
370
    15
100
AcDbLine
 10
443.6995254266
 20
241.9839592178
 30
0.0
 11
447.199525069
 21
241.9839592178
 31
0.0
  0
LINE
  5
336
330
1F
100
AcDbEntity
  8
0
  6
Continuous
 62
     7
370
    15
100
AcDbLine
 10
443.6995254266
 20
244.9839597095
 30
0.0
 11
443.6995254266
 21
241.9839592178
 31
0.0
  0
LINE
  5
337
330
1F
100
AcDbEntity
  8
0
  6
Continuous
 62
     7
370
    15
100
AcDbLine
 10
437.1995346057
 20
244.9839597095
 30
0.0
 11
443.6995254266
 21
244.9839597095
 31
0.0
  0
LINE
  5
338
330
1F
100
AcDbEntity
  8
0
  6
Continuous
 62
     7
370
    15
100
AcDbLine
 10
437.1995346057
 20
245.9839598734
 30
0.0
 11
437.1995346057
 21
244.9839597095
 31
0.0
  0
LINE
  5
339
330
1F
100
AcDbEntity
  8
0
  6
Continuous
 62
     7
370
    15
100
AcDbLine
 10
426.6995207774
 20
245.9839598734
 30
0.0
 11
437.1995346057
 21
245.9839598734
 31
0.0
  0
LINE
  5
33A
330
1F
100
AcDbEntity
  8
0
  6
Continuous
 62
     7
370
    15
100
AcDbLine
 10
426.6995207774
 20
244.9839597095
 30
0.0
 11
426.6995207774
 21
245.9839598734
 31
0.0
  0
LINE
  5
33B
330
1F
100
AcDbEntity
  8
0
  6
Continuous
 62
     7
370
    15
100
AcDbLine
 10
420.1995448577
 20
244.9839597095
 30
0.0
 11
426.6995207774
 21
244.9839597095
 31
0.0
  0
LINE
  5
33C
330
1F
100
AcDbEntity
  8
0
  6
Continuous
 62
     7
370
    15
100
AcDbLine
 10
420.1995448577
 20
241.9839592178
 30
0.0
 11
420.1995448577
 21
244.9839597095
 31
0.0
  0
LINE
  5
33D
330
1F
100
AcDbEntity
  8
0
  6
Continuous
 62
     7
370
    15
100
AcDbLine
 10
416.6995303142
 20
241.9839592178
 30
0.0
 11
420.1995448577
 21
241.9839592178
 31
0.0
  0
LINE
  5
33E
330
1F
100
AcDbEntity
  8
0
  6
Continuous
 62
     7
370
    15
100
AcDbLine
 10
416.6995303142
 20
259.9839593742
 30
0.0
 11
416.6995303142
 21
241.9839592178
 31
0.0
  0
LINE
  5
33F
330
1F
100
AcDbEntity
  8
0
  6
Continuous
 62
     7
370
    15
100
AcDbLine
 10
413.6995391357
 20
259.9839593742
 30
0.0
 11
416.6995303142
 21
259.9839593742
 31
0.0
  0
LINE
  5
340
330
1F
100
AcDbEntity
  8
0
  6
Continuous
 62
     7
370
    15
100
AcDbLine
 10
413.6995391357
 20
241.9839592178
 30
0.0
 11
413.6995391357
 21
259.9839593742
 31
0.0
  0
LINE
  5
341
330
1F
100
AcDbEntity
  8
0
  6
Continuous
 62
     7
370
    15
100
AcDbLine
 10
410.1995245921
 20
241.9839592178
 30
0.0
 11
413.6995391357
 21
241.9839592178
 31
0.0
  0
LINE
  5
342
330
1F
100
AcDbEntity
  8
0
  6
Continuous
 62
     7
370
    15
100
AcDbLine
 10
410.1995245921
 20
244.9839597095
 30
0.0
 11
410.1995245921
 21
241.9839592178
 31
0.0
  0
LINE
  5
343
330
1F
100
AcDbEntity
  8
0
  6
Continuous
 62
     7
370
    15
100
AcDbLine
 10
403.6995188701
 20
244.9839597095
 30
0.0
 11
410.1995245921
 21
244.9839597095
 31
0.0
  0
LINE
  5
344
330
1F
100
AcDbEntity
  8
0
  6
Continuous
 62
     7
370
    15
100
AcDbLine
 10
403.6995188701
 20
245.9839598734
 30
0.0
 11
403.6995188701
 21
244.9839597095
 31
0.0
  0
LINE
  5
345
330
1F
100
AcDbEntity
  8
0
  6
Continuous
 62
     7
370
    15
100
AcDbLine
 10
393.1995348441
 20
245.9839598734
 30
0.0
 11
403.6995188701
 21
245.9839598734
 31
0.0
  0
LINE
  5
346
330
1F
100
AcDbEntity
  8
0
  6
Continuous
 62
     7
370
    15
100
AcDbLine
 10
393.1995348441
 20
244.9839597095
 30
0.0
 11
393.1995348441
 21
245.9839598734
 31
0.0
  0
LINE
  5
347
330
1F
100
AcDbEntity
  8
0
  6
Continuous
 62
     7
370
    15
100
AcDbLine
 10
386.6995291221
 20
244.9839597095
 30
0.0
 11
393.1995348441
 21
244.9839597095
 31
0.0
  0
LINE
  5
348
330
1F
100
AcDbEntity
  8
0
  6
Continuous
 62
     7
370
    15
100
AcDbLine
 10
386.6995291221
 20
241.9839592178
 30
0.0
 11
386.6995291221
 21
244.9839597095
 31
0.0
  0
LINE
  5
349
330
1F
100
AcDbEntity
  8
0
  6
Continuous
 62
     7
370
    15
100
AcDbLine
 10
383.1995443809
 20
241.9839592178
 30
0.0
 11
386.6995291221
 21
241.9839592178
 31
0.0
  0
LINE
  5
34A
330
1F
100
AcDbEntity
  8
0
  6
Continuous
 62
     7
370
    15
100
AcDbLine
 10
383.1995443809
 20
259.9839593742
 30
0.0
 11
383.1995443809
 21
241.9839592178
 31
0.0
  0
LINE
  5
34B
330
1F
100
AcDbEntity
  8
0
  6
Continuous
 62
     7
370
    15
100
AcDbLine
 10
380.1995234
 20
259.9839593742
 30
0.0
 11
383.1995443809
 21
259.9839593742
 31
0.0
  0
LINE
  5
34C
330
1F
100
AcDbEntity
  8
0
  6
Continuous
 62
     7
370
    15
100
AcDbLine
 10
380.1995234
 20
241.9839592178
 30
0.0
 11
380.1995234
 21
259.9839593742
 31
0.0
  0
LINE
  5
34D
330
1F
100
AcDbEntity
  8
0
  6
Continuous
 62
     7
370
    15
100
AcDbLine
 10
376.6995386588
 20
241.9839592178
 30
0.0
 11
380.1995234
 21
241.9839592178
 31
0.0
  0
LINE
  5
34E
330
1F
100
AcDbEntity
  8
0
  6
Continuous
 62
     7
370
    15
100
AcDbLine
 10
376.6995386588
 20
244.9839597095
 30
0.0
 11
376.6995386588
 21
241.9839592178
 31
0.0
  0
LINE
  5
34F
330
1F
100
AcDbEntity
  8
0
  6
Continuous
 62
     7
370
    15
100
AcDbLine
 10
370.1995329368
 20
244.9839597095
 30
0.0
 11
376.6995386588
 21
244.9839597095
 31
0.0
  0
LINE
  5
350
330
1F
100
AcDbEntity
  8
0
  6
Continuous
 62
     7
370
    15
100
AcDbLine
 10
370.1995329368
 20
245.9839598734
 30
0.0
 11
370.1995329368
 21
244.9839597095
 31
0.0
  0
LINE
  5
351
330
1F
100
AcDbEntity
  8
0
  6
Continuous
 62
     7
370
    15
100
AcDbLine
 10
359.6995191085
 20
245.9839598734
 30
0.0
 11
370.1995329368
 21
245.9839598734
 31
0.0
  0
LINE
  5
352
330
1F
100
AcDbEntity
  8
0
  6
Continuous
 62
     7
370
    15
100
AcDbLine
 10
359.6995191085
 20
244.9839597095
 30
0.0
 11
359.6995191085
 21
245.9839598734
 31
0.0
  0
LINE
  5
353
330
1F
100
AcDbEntity
  8
0
  6
Continuous
 62
     7
370
    15
100
AcDbLine
 10
349.6995286453
 20
244.9839597095
 30
0.0
 11
359.6995191085
 21
244.9839597095
 31
0.0
  0
LINE
  5
354
330
1F
100
AcDbEntity
  8
0
  6
Continuous
 62
     7
370
    15
100
AcDbLine
 10
346.6995374667
 20
274.9839597356
 30
0.0
 11
346.6995374667
 21
259.9839593742
 31
0.0
  0
LINE
  5
355
330
1F
100
AcDbEntity
  8
0
  6
Continuous
 62
     7
370
    15
100
AcDbLine
 10
517.1995328176
 20
274.9839597356
 30
0.0
 11
346.6995374667
 21
274.9839597356
 31
0.0
  0
LINE
  5
356
330
1F
100
AcDbEntity
  8
0
  6
Continuous
 62
     7
370
    15
100
AcDbLine
 10
517.1995328176
 20
259.9839593742
 30
0.0
 11
517.1995328176
 21
274.9839597356
 31
0.0
  0
LINE
  5
357
330
1F
100
AcDbEntity
  8
0
  6
Continuous
 62
     7
370
    15
100
AcDbLine
 10
514.1995267379
 20
259.9839593742
 30
0.0
 11
517.1995328176
 21
259.9839593742
 31
0.0
  0
LINE
  5
358
330
1F
100
AcDbEntity
  8
0
  6
Continuous
 62
     7
370
    15
100
AcDbLine
 10
346.6995374667
 20
259.9839593742
 30
0.0
 11
349.6995286453
 21
259.9839593742
 31
0.0
  0
LINE
  5
359
330
1F
100
AcDbEntity
  8
0
  6
Continuous
 62
     7
370
    15
100
AcDbLine
 10
514.1995267379
 20
244.9839597095
 30
0.0
 11
514.1995267379
 21
259.9839593742
 31
0.0
  0
LINE
  5
35A
330
1F
100
AcDbEntity
  8
0
  6
Continuous
 62
     7
370
    15
100
AcDbLine
 10
349.6995286453
 20
259.9839593742
 30
0.0
 11
349.6995286453
 21
244.9839597095
 31
0.0
  0
LINE
  5
35B
330
1F
100
AcDbEntity
  8
0
  6
Continuous
 62
     7
370
    15
100
AcDbLine
 10
92.3735866041
 20
209.207544195
 30
0.0
 11
102.373584518
 21
209.207544195
 31
0.0
  0
LINE
  5
35C
330
1F
100
AcDbEntity
  8
0
  6
Continuous
 62
     7
370
    15
100
AcDbLine
 10
92.3735866041
 20
213.207544385
 30
0.0
 11
92.3735866041
 21
209.207544195
 31
0.0
  0
LINE
  5
35D
330
1F
100
AcDbEntity
  8
0
  6
Continuous
 62
     7
370
    15
100
AcDbLine
 10
81.873587677
 20
213.207544385
 30
0.0
 11
92.3735866041
 21
213.207544385
 31
0.0
  0
LINE
  5
35E
330
1F
100
AcDbEntity
  8
0
  6
Continuous
 62
     7
370
    15
100
AcDbLine
 10
81.873587677
 20
209.207544195
 30
0.0
 11
81.873587677
 21
213.207544385
 31
0.0
  0
LINE
  5
35F
330
1F
100
AcDbEntity
  8
0
  6
Continuous
 62
     7
370
    15
100
AcDbLine
 10
71.8735823126
 20
209.207544195
 30
0.0
 11
81.873587677
 21
209.207544195
 31
0.0
  0
LINE
  5
360
330
1F
100
AcDbEntity
  8
0
  6
Continuous
 62
     7
370
    15
100
AcDbLine
 10
71.8735823126
 20
224.2075438598
 30
0.0
 11
71.8735823126
 21
209.207544195
 31
0.0
  0
LINE
  5
361
330
1F
100
AcDbEntity
  8
0
  6
Continuous
 62
     7
370
    15
100
AcDbLine
 10
68.8735836835
 20
224.2075438598
 30
0.0
 11
71.8735823126
 21
224.2075438598
 31
0.0
  0
LINE
  5
362
330
1F
100
AcDbEntity
  8
0
  6
Continuous
 62
     7
370
    15
100
AcDbLine
 10
68.8735836835
 20
209.207544195
 30
0.0
 11
68.8735836835
 21
224.2075438598
 31
0.0
  0
LINE
  5
363
330
1F
100
AcDbEntity
  8
0
  6
Continuous
 62
     7
370
    15
100
AcDbLine
 10
58.8735857697
 20
209.207544195
 30
0.0
 11
68.8735836835
 21
209.207544195
 31
0.0
  0
LINE
  5
364
330
1F
100
AcDbEntity
  8
0
  6
Continuous
 62
     7
370
    15
100
AcDbLine
 10
58.8735857697
 20
213.207544385
 30
0.0
 11
58.8735857697
 21
209.207544195
 31
0.0
  0
LINE
  5
365
330
1F
100
AcDbEntity
  8
0
  6
Continuous
 62
     7
370
    15
100
AcDbLine
 10
48.3735868425
 20
213.207544385
 30
0.0
 11
58.8735857697
 21
213.207544385
 31
0.0
  0
LINE
  5
366
330
1F
100
AcDbEntity
  8
0
  6
Continuous
 62
     7
370
    15
100
AcDbLine
 10
48.3735868425
 20
209.207544195
 30
0.0
 11
48.3735868425
 21
213.207544385
 31
0.0
  0
LINE
  5
367
330
1F
100
AcDbEntity
  8
0
  6
Continuous
 62
     7
370
    15
100
AcDbLine
 10
38.3735852034
 20
209.207544195
 30
0.0
 11
48.3735868425
 21
209.207544195
 31
0.0
  0
LINE
  5
368
330
1F
100
AcDbEntity
  8
0
  6
Continuous
 62
     7
370
    15
100
AcDbLine
 10
38.3735852034
 20
224.2075438598
 30
0.0
 11
38.3735852034
 21
209.207544195
 31
0.0
  0
LINE
  5
369
330
1F
100
AcDbEntity
  8
0
  6
Continuous
 62
     7
370
    15
100
AcDbLine
 10
35.3735865743
 20
224.2075438598
 30
0.0
 11
38.3735852034
 21
224.2075438598
 31
0.0
  0
LINE
  5
36A
330
1F
100
AcDbEntity
  8
0
  6
Continuous
 62
     7
370
    15
100
AcDbLine
 10
35.3735865743
 20
209.207544195
 30
0.0
 11
35.3735865743
 21
224.2075438598
 31
0.0
  0
LINE
  5
36B
330
1F
100
AcDbEntity
  8
0
  6
Continuous
 62
     7
370
    15
100
AcDbLine
 10
25.3735849352
 20
209.207544195
 30
0.0
 11
35.3735865743
 21
209.207544195
 31
0.0
  0
LINE
  5
36C
330
1F
100
AcDbEntity
  8
0
  6
Continuous
 62
     7
370
    15
100
AcDbLine
 10
25.3735849352
 20
213.207544385
 30
0.0
 11
25.3735849352
 21
209.207544195
 31
0.0
  0
LINE
  5
36D
330
1F
100
AcDbEntity
  8
0
  6
Continuous
 62
     7
370
    15
100
AcDbLine
 10
14.8735850768
 20
213.207544385
 30
0.0
 11
25.3735849352
 21
213.207544385
 31
0.0
  0
LINE
  5
36E
330
1F
100
AcDbEntity
  8
0
  6
Continuous
 62
     7
370
    15
100
AcDbLine
 10
14.8735850768
 20
209.207544195
 30
0.0
 11
14.8735850768
 21
213.207544385
 31
0.0
  0
LINE
  5
36F
330
1F
100
AcDbEntity
  8
0
  6
Continuous
 62
     7
370
    15
100
AcDbLine
 10
4.8735850674
 20
209.207544195
 30
0.0
 11
14.8735850768
 21
209.207544195
 31
0.0
  0
LINE
  5
370
330
1F
100
AcDbEntity
  8
0
  6
Continuous
 62
     7
370
    15
100
AcDbLine
 10
4.8735850674
 20
239.2075435245
 30
0.0
 11
4.8735850674
 21
209.207544195
 31
0.0
  0
LINE
  5
371
330
1F
100
AcDbEntity
  8
0
  6
Continuous
 62
     7
370
    15
100
AcDbLine
 10
169.3735787363
 20
239.2075435245
 30
0.0
 11
4.8735850674
 21
239.2075435245
 31
0.0
  0
LINE
  5
372
330
1F
100
AcDbEntity
  8
0
  6
Continuous
 62
     7
370
    15
100
AcDbLine
 10
169.3735787363
 20
209.207544195
 30
0.0
 11
169.3735787363
 21
239.2075435245
 31
0.0
  0
LINE
  5
373
330
1F
100
AcDbEntity
  8
0
  6
Continuous
 62
     7
370
    15
100
AcDbLine
 10
159.373588273
 20
209.207544195
 30
0.0
 11
169.3735787363
 21
209.207544195
 31
0.0
  0
LINE
  5
374
330
1F
100
AcDbEntity
  8
0
  6
Continuous
 62
     7
370
    15
100
AcDbLine
 10
159.373588273
 20
213.207544385
 30
0.0
 11
159.373588273
 21
209.207544195
 31
0.0
  0
LINE
  5
375
330
1F
100
AcDbEntity
  8
0
  6
Continuous
 62
     7
370
    15
100
AcDbLine
 10
148.8735893459
 20
213.207544385
 30
0.0
 11
159.373588273
 21
213.207544385
 31
0.0
  0
LINE
  5
376
330
1F
100
AcDbEntity
  8
0
  6
Continuous
 62
     7
370
    15
100
AcDbLine
 10
148.8735893459
 20
209.207544195
 30
0.0
 11
148.8735893459
 21
213.207544385
 31
0.0
  0
LINE
  5
377
330
1F
100
AcDbEntity
  8
0
  6
Continuous
 62
     7
370
    15
100
AcDbLine
 10
138.8735839815
 20
209.207544195
 30
0.0
 11
148.8735893459
 21
209.207544195
 31
0.0
  0
LINE
  5
378
330
1F
100
AcDbEntity
  8
0
  6
Continuous
 62
     7
370
    15
100
AcDbLine
 10
138.8735839815
 20
224.2075438598
 30
0.0
 11
138.8735839815
 21
209.207544195
 31
0.0
  0
LINE
  5
379
330
1F
100
AcDbEntity
  8
0
  6
Continuous
 62
     7
370
    15
100
AcDbLine
 10
135.8735779018
 20
224.2075438598
 30
0.0
 11
138.8735839815
 21
224.2075438598
 31
0.0
  0
LINE
  5
37A
330
1F
100
AcDbEntity
  8
0
  6
Continuous
 62
     7
370
    15
100
AcDbLine
 10
135.8735779018
 20
209.207544195
 30
0.0
 11
135.8735779018
 21
224.2075438598
 31
0.0
  0
LINE
  5
37B
330
1F
100
AcDbEntity
  8
0
  6
Continuous
 62
     7
370
    15
100
AcDbLine
 10
125.8735874386
 20
209.207544195
 30
0.0
 11
135.8735779018
 21
209.207544195
 31
0.0
  0
LINE
  5
37C
330
1F
100
AcDbEntity
  8
0
  6
Continuous
 62
     7
370
    15
100
AcDbLine
 10
125.8735874386
 20
213.207544385
 30
0.0
 11
125.8735874386
 21
209.207544195
 31
0.0
  0
LINE
  5
37D
330
1F
100
AcDbEntity
  8
0
  6
Continuous
 62
     7
370
    15
100
AcDbLine
 10
115.3735885115
 20
213.207544385
 30
0.0
 11
125.8735874386
 21
213.207544385
 31
0.0
  0
LINE
  5
37E
330
1F
100
AcDbEntity
  8
0
  6
Continuous
 62
     7
370
    15
100
AcDbLine
 10
115.3735885115
 20
209.207544195
 30
0.0
 11
115.3735885115
 21
213.207544385
 31
0.0
  0
LINE
  5
37F
330
1F
100
AcDbEntity
  8
0
  6
Continuous
 62
     7
370
    15
100
AcDbLine
 10
105.3735831471
 20
209.207544195
 30
0.0
 11
115.3735885115
 21
209.207544195
 31
0.0
  0
LINE
  5
380
330
1F
100
AcDbEntity
  8
0
  6
Continuous
 62
     7
370
    15
100
AcDbLine
 10
105.3735831471
 20
224.2075438598
 30
0.0
 11
105.3735831471
 21
209.207544195
 31
0.0
  0
LINE
  5
381
330
1F
100
AcDbEntity
  8
0
  6
Continuous
 62
     7
370
    15
100
AcDbLine
 10
102.373584518
 20
224.2075438598
 30
0.0
 11
105.3735831471
 21
224.2075438598
 31
0.0
  0
LINE
  5
382
330
1F
100
AcDbEntity
  8
0
  6
Continuous
 62
     7
370
    15
100
AcDbLine
 10
102.373584518
 20
209.207544195
 30
0.0
 11
102.373584518
 21
224.2075438598
 31
0.0
  0
LINE
  5
383
330
1F
100
AcDbEntity
  8
0
  6
Continuous
 62
     7
370
    15
100
AcDbLine
 10
265.3745316365
 20
208.9202801185
 30
0.0
 11
275.3745295503
 21
208.9202801185
 31
0.0
  0
LINE
  5
384
330
1F
100
AcDbEntity
  8
0
  6
Continuous
 62
     7
370
    15
100
AcDbLine
 10
265.3745316365
 20
212.9202803085
 30
0.0
 11
265.3745316365
 21
208.9202801185
 31
0.0
  0
LINE
  5
385
330
1F
100
AcDbEntity
  8
0
  6
Continuous
 62
     7
370
    15
100
AcDbLine
 10
254.8745327094
 20
212.9202803085
 30
0.0
 11
265.3745316365
 21
212.9202803085
 31
0.0
  0
LINE
  5
386
330
1F
100
AcDbEntity
  8
0
  6
Continuous
 62
     7
370
    15
100
AcDbLine
 10
254.8745327094
 20
208.9202801185
 30
0.0
 11
254.8745327094
 21
212.9202803085
 31
0.0
  0
LINE
  5
387
330
1F
100
AcDbEntity
  8
0
  6
Continuous
 62
     7
370
    15
100
AcDbLine
 10
244.8745273449
 20
208.9202801185
 30
0.0
 11
254.8745327094
 21
208.9202801185
 31
0.0
  0
LINE
  5
388
330
1F
100
AcDbEntity
  8
0
  6
Continuous
 62
     7
370
    15
100
AcDbLine
 10
244.8745273449
 20
223.9202797832
 30
0.0
 11
244.8745273449
 21
208.9202801185
 31
0.0
  0
LINE
  5
389
330
1F
100
AcDbEntity
  8
0
  6
Continuous
 62
     7
370
    15
100
AcDbLine
 10
241.8745287158
 20
223.9202797832
 30
0.0
 11
244.8745273449
 21
223.9202797832
 31
0.0
  0
LINE
  5
38A
330
1F
100
AcDbEntity
  8
0
  6
Continuous
 62
     7
370
    15
100
AcDbLine
 10
241.8745287158
 20
208.9202801185
 30
0.0
 11
241.8745287158
 21
223.9202797832
 31
0.0
  0
LINE
  5
38B
330
1F
100
AcDbEntity
  8
0
  6
Continuous
 62
     7
370
    15
100
AcDbLine
 10
231.874530802
 20
208.9202801185
 30
0.0
 11
241.8745287158
 21
208.9202801185
 31
0.0
  0
LINE
  5
38C
330
1F
100
AcDbEntity
  8
0
  6
Continuous
 62
     7
370
    15
100
AcDbLine
 10
231.874530802
 20
212.9202803085
 30
0.0
 11
231.874530802
 21
208.9202801185
 31
0.0
  0
LINE
  5
38D
330
1F
100
AcDbEntity
  8
0
  6
Continuous
 62
     7
370
    15
100
AcDbLine
 10
221.3745318749
 20
212.9202803085
 30
0.0
 11
231.874530802
 21
212.9202803085
 31
0.0
  0
LINE
  5
38E
330
1F
100
AcDbEntity
  8
0
  6
Continuous
 62
     7
370
    15
100
AcDbLine
 10
221.3745318749
 20
208.9202801185
 30
0.0
 11
221.3745318749
 21
212.9202803085
 31
0.0
  0
LINE
  5
38F
330
1F
100
AcDbEntity
  8
0
  6
Continuous
 62
     7
370
    15
100
AcDbLine
 10
211.3745302358
 20
208.9202801185
 30
0.0
 11
221.3745318749
 21
208.9202801185
 31
0.0
  0
LINE
  5
390
330
1F
100
AcDbEntity
  8
0
  6
Continuous
 62
     7
370
    15
100
AcDbLine
 10
211.3745302358
 20
223.9202797832
 30
0.0
 11
211.3745302358
 21
208.9202801185
 31
0.0
  0
LINE
  5
391
330
1F
100
AcDbEntity
  8
0
  6
Continuous
 62
     7
370
    15
100
AcDbLine
 10
208.3745316067
 20
223.9202797832
 30
0.0
 11
211.3745302358
 21
223.9202797832
 31
0.0
  0
LINE
  5
392
330
1F
100
AcDbEntity
  8
0
  6
Continuous
 62
     7
370
    15
100
AcDbLine
 10
208.3745316067
 20
208.9202801185
 30
0.0
 11
208.3745316067
 21
223.9202797832
 31
0.0
  0
LINE
  5
393
330
1F
100
AcDbEntity
  8
0
  6
Continuous
 62
     7
370
    15
100
AcDbLine
 10
198.3745299675
 20
208.9202801185
 30
0.0
 11
208.3745316067
 21
208.9202801185
 31
0.0
  0
LINE
  5
394
330
1F
100
AcDbEntity
  8
0
  6
Continuous
 62
     7
370
    15
100
AcDbLine
 10
198.3745299675
 20
212.9202803085
 30
0.0
 11
198.3745299675
 21
208.9202801185
 31
0.0
  0
LINE
  5
395
330
1F
100
AcDbEntity
  8
0
  6
Continuous
 62
     7
370
    15
100
AcDbLine
 10
187.8745301091
 20
212.9202803085
 30
0.0
 11
198.3745299675
 21
212.9202803085
 31
0.0
  0
LINE
  5
396
330
1F
100
AcDbEntity
  8
0
  6
Continuous
 62
     7
370
    15
100
AcDbLine
 10
187.8745301091
 20
208.9202801185
 30
0.0
 11
187.8745301091
 21
212.9202803085
 31
0.0
  0
LINE
  5
397
330
1F
100
AcDbEntity
  8
0
  6
Continuous
 62
     7
370
    15
100
AcDbLine
 10
177.8745300998
 20
208.9202801185
 30
0.0
 11
187.8745301091
 21
208.9202801185
 31
0.0
  0
LINE
  5
398
330
1F
100
AcDbEntity
  8
0
  6
Continuous
 62
     7
370
    15
100
AcDbLine
 10
177.8745300998
 20
238.9202794479
 30
0.0
 11
177.8745300998
 21
208.9202801185
 31
0.0
  0
LINE
  5
399
330
1F
100
AcDbEntity
  8
0
  6
Continuous
 62
     7
370
    15
100
AcDbLine
 10
342.3745237687
 20
238.9202794479
 30
0.0
 11
177.8745300998
 21
238.9202794479
 31
0.0
  0
LINE
  5
39A
330
1F
100
AcDbEntity
  8
0
  6
Continuous
 62
     7
370
    15
100
AcDbLine
 10
342.3745237687
 20
208.9202801185
 30
0.0
 11
342.3745237687
 21
238.9202794479
 31
0.0
  0
LINE
  5
39B
330
1F
100
AcDbEntity
  8
0
  6
Continuous
 62
     7
370
    15
100
AcDbLine
 10
332.3745333054
 20
208.9202801185
 30
0.0
 11
342.3745237687
 21
208.9202801185
 31
0.0
  0
LINE
  5
39C
330
1F
100
AcDbEntity
  8
0
  6
Continuous
 62
     7
370
    15
100
AcDbLine
 10
332.3745333054
 20
212.9202803085
 30
0.0
 11
332.3745333054
 21
208.9202801185
 31
0.0
  0
LINE
  5
39D
330
1F
100
AcDbEntity
  8
0
  6
Continuous
 62
     7
370
    15
100
AcDbLine
 10
321.8745343783
 20
212.9202803085
 30
0.0
 11
332.3745333054
 21
212.9202803085
 31
0.0
  0
LINE
  5
39E
330
1F
100
AcDbEntity
  8
0
  6
Continuous
 62
     7
370
    15
100
AcDbLine
 10
321.8745343783
 20
208.9202801185
 30
0.0
 11
321.8745343783
 21
212.9202803085
 31
0.0
  0
LINE
  5
39F
330
1F
100
AcDbEntity
  8
0
  6
Continuous
 62
     7
370
    15
100
AcDbLine
 10
311.8745290139
 20
208.9202801185
 30
0.0
 11
321.8745343783
 21
208.9202801185
 31
0.0
  0
LINE
  5
3A0
330
1F
100
AcDbEntity
  8
0
  6
Continuous
 62
     7
370
    15
100
AcDbLine
 10
311.8745290139
 20
223.9202797832
 30
0.0
 11
311.8745290139
 21
208.9202801185
 31
0.0
  0
LINE
  5
3A1
330
1F
100
AcDbEntity
  8
0
  6
Continuous
 62
     7
370
    15
100
AcDbLine
 10
308.8745229342
 20
223.9202797832
 30
0.0
 11
311.8745290139
 21
223.9202797832
 31
0.0
  0
LINE
  5
3A2
330
1F
100
AcDbEntity
  8
0
  6
Continuous
 62
     7
370
    15
100
AcDbLine
 10
308.8745229342
 20
208.9202801185
 30
0.0
 11
308.8745229342
 21
223.9202797832
 31
0.0
  0
LINE
  5
3A3
330
1F
100
AcDbEntity
  8
0
  6
Continuous
 62
     7
370
    15
100
AcDbLine
 10
298.8745324709
 20
208.9202801185
 30
0.0
 11
308.8745229342
 21
208.9202801185
 31
0.0
  0
LINE
  5
3A4
330
1F
100
AcDbEntity
  8
0
  6
Continuous
 62
     7
370
    15
100
AcDbLine
 10
298.8745324709
 20
212.9202803085
 30
0.0
 11
298.8745324709
 21
208.9202801185
 31
0.0
  0
LINE
  5
3A5
330
1F
100
AcDbEntity
  8
0
  6
Continuous
 62
     7
370
    15
100
AcDbLine
 10
288.3745335438
 20
212.9202803085
 30
0.0
 11
298.8745324709
 21
212.9202803085
 31
0.0
  0
LINE
  5
3A6
330
1F
100
AcDbEntity
  8
0
  6
Continuous
 62
     7
370
    15
100
AcDbLine
 10
288.3745335438
 20
208.9202801185
 30
0.0
 11
288.3745335438
 21
212.9202803085
 31
0.0
  0
LINE
  5
3A7
330
1F
100
AcDbEntity
  8
0
  6
Continuous
 62
     7
370
    15
100
AcDbLine
 10
278.3745281794
 20
208.9202801185
 30
0.0
 11
288.3745335438
 21
208.9202801185
 31
0.0
  0
LINE
  5
3A8
330
1F
100
AcDbEntity
  8
0
  6
Continuous
 62
     7
370
    15
100
AcDbLine
 10
278.3745281794
 20
223.9202797832
 30
0.0
 11
278.3745281794
 21
208.9202801185
 31
0.0
  0
LINE
  5
3A9
330
1F
100
AcDbEntity
  8
0
  6
Continuous
 62
     7
370
    15
100
AcDbLine
 10
275.3745295503
 20
223.9202797832
 30
0.0
 11
278.3745281794
 21
223.9202797832
 31
0.0
  0
LINE
  5
3AA
330
1F
100
AcDbEntity
  8
0
  6
Continuous
 62
     7
370
    15
100
AcDbLine
 10
275.3745295503
 20
208.9202801185
 30
0.0
 11
275.3745295503
 21
223.9202797832
 31
0.0
  0
LINE
  5
3AB
330
1F
100
AcDbEntity
  8
0
  6
Continuous
 62
     7
370
    15
100
AcDbLine
 10
436.7297220262
 20
208.9202801185
 30
0.0
 11
446.72971994
 21
208.9202801185
 31
0.0
  0
LINE
  5
3AC
330
1F
100
AcDbEntity
  8
0
  6
Continuous
 62
     7
370
    15
100
AcDbLine
 10
436.7297220262
 20
212.9202803085
 30
0.0
 11
436.7297220262
 21
208.9202801185
 31
0.0
  0
LINE
  5
3AD
330
1F
100
AcDbEntity
  8
0
  6
Continuous
 62
     7
370
    15
100
AcDbLine
 10
426.2297230991
 20
212.9202803085
 30
0.0
 11
436.7297220262
 21
212.9202803085
 31
0.0
  0
LINE
  5
3AE
330
1F
100
AcDbEntity
  8
0
  6
Continuous
 62
     7
370
    15
100
AcDbLine
 10
426.2297230991
 20
208.9202801185
 30
0.0
 11
426.2297230991
 21
212.9202803085
 31
0.0
  0
LINE
  5
3AF
330
1F
100
AcDbEntity
  8
0
  6
Continuous
 62
     7
370
    15
100
AcDbLine
 10
416.2297177347
 20
208.9202801185
 30
0.0
 11
426.2297230991
 21
208.9202801185
 31
0.0
  0
LINE
  5
3B0
330
1F
100
AcDbEntity
  8
0
  6
Continuous
 62
     7
370
    15
100
AcDbLine
 10
416.2297177347
 20
223.9202797832
 30
0.0
 11
416.2297177347
 21
208.9202801185
 31
0.0
  0
LINE
  5
3B1
330
1F
100
AcDbEntity
  8
0
  6
Continuous
 62
     7
370
    15
100
AcDbLine
 10
413.2297191056
 20
223.9202797832
 30
0.0
 11
416.2297177347
 21
223.9202797832
 31
0.0
  0
LINE
  5
3B2
330
1F
100
AcDbEntity
  8
0
  6
Continuous
 62
     7
370
    15
100
AcDbLine
 10
413.2297191056
 20
208.9202801185
 30
0.0
 11
413.2297191056
 21
223.9202797832
 31
0.0
  0
LINE
  5
3B3
330
1F
100
AcDbEntity
  8
0
  6
Continuous
 62
     7
370
    15
100
AcDbLine
 10
403.2297211917
 20
208.9202801185
 30
0.0
 11
413.2297191056
 21
208.9202801185
 31
0.0
  0
LINE
  5
3B4
330
1F
100
AcDbEntity
  8
0
  6
Continuous
 62
     7
370
    15
100
AcDbLine
 10
403.2297211917
 20
212.9202803085
 30
0.0
 11
403.2297211917
 21
208.9202801185
 31
0.0
  0
LINE
  5
3B5
330
1F
100
AcDbEntity
  8
0
  6
Continuous
 62
     7
370
    15
100
AcDbLine
 10
392.7297222646
 20
212.9202803085
 30
0.0
 11
403.2297211917
 21
212.9202803085
 31
0.0
  0
LINE
  5
3B6
330
1F
100
AcDbEntity
  8
0
  6
Continuous
 62
     7
370
    15
100
AcDbLine
 10
392.7297222646
 20
208.9202801185
 30
0.0
 11
392.7297222646
 21
212.9202803085
 31
0.0
  0
LINE
  5
3B7
330
1F
100
AcDbEntity
  8
0
  6
Continuous
 62
     7
370
    15
100
AcDbLine
 10
382.7297206255
 20
208.9202801185
 30
0.0
 11
392.7297222646
 21
208.9202801185
 31
0.0
  0
LINE
  5
3B8
330
1F
100
AcDbEntity
  8
0
  6
Continuous
 62
     7
370
    15
100
AcDbLine
 10
382.7297206255
 20
223.9202797832
 30
0.0
 11
382.7297206255
 21
208.9202801185
 31
0.0
  0
LINE
  5
3B9
330
1F
100
AcDbEntity
  8
0
  6
Continuous
 62
     7
370
    15
100
AcDbLine
 10
379.7297219964
 20
223.9202797832
 30
0.0
 11
382.7297206255
 21
223.9202797832
 31
0.0
  0
LINE
  5
3BA
330
1F
100
AcDbEntity
  8
0
  6
Continuous
 62
     7
370
    15
100
AcDbLine
 10
379.7297219964
 20
208.9202801185
 30
0.0
 11
379.7297219964
 21
223.9202797832
 31
0.0
  0
LINE
  5
3BB
330
1F
100
AcDbEntity
  8
0
  6
Continuous
 62
     7
370
    15
100
AcDbLine
 10
369.7297203573
 20
208.9202801185
 30
0.0
 11
379.7297219964
 21
208.9202801185
 31
0.0
  0
LINE
  5
3BC
330
1F
100
AcDbEntity
  8
0
  6
Continuous
 62
     7
370
    15
100
AcDbLine
 10
369.7297203573
 20
212.9202803085
 30
0.0
 11
369.7297203573
 21
208.9202801185
 31
0.0
  0
LINE
  5
3BD
330
1F
100
AcDbEntity
  8
0
  6
Continuous
 62
     7
370
    15
100
AcDbLine
 10
359.2297204988
 20
212.9202803085
 30
0.0
 11
369.7297203573
 21
212.9202803085
 31
0.0
  0
LINE
  5
3BE
330
1F
100
AcDbEntity
  8
0
  6
Continuous
 62
     7
370
    15
100
AcDbLine
 10
359.2297204988
 20
208.9202801185
 30
0.0
 11
359.2297204988
 21
212.9202803085
 31
0.0
  0
LINE
  5
3BF
330
1F
100
AcDbEntity
  8
0
  6
Continuous
 62
     7
370
    15
100
AcDbLine
 10
349.2297204895
 20
208.9202801185
 30
0.0
 11
359.2297204988
 21
208.9202801185
 31
0.0
  0
LINE
  5
3C0
330
1F
100
AcDbEntity
  8
0
  6
Continuous
 62
     7
370
    15
100
AcDbLine
 10
349.2297204895
 20
238.9202794479
 30
0.0
 11
349.2297204895
 21
208.9202801185
 31
0.0
  0
LINE
  5
3C1
330
1F
100
AcDbEntity
  8
0
  6
Continuous
 62
     7
370
    15
100
AcDbLine
 10
513.7297141584
 20
238.9202794479
 30
0.0
 11
349.2297204895
 21
238.9202794479
 31
0.0
  0
LINE
  5
3C2
330
1F
100
AcDbEntity
  8
0
  6
Continuous
 62
     7
370
    15
100
AcDbLine
 10
513.7297141584
 20
208.9202801185
 30
0.0
 11
513.7297141584
 21
238.9202794479
 31
0.0
  0
LINE
  5
3C3
330
1F
100
AcDbEntity
  8
0
  6
Continuous
 62
     7
370
    15
100
AcDbLine
 10
503.7297236951
 20
208.9202801185
 30
0.0
 11
513.7297141584
 21
208.9202801185
 31
0.0
  0
LINE
  5
3C4
330
1F
100
AcDbEntity
  8
0
  6
Continuous
 62
     7
370
    15
100
AcDbLine
 10
503.7297236951
 20
212.9202803085
 30
0.0
 11
503.7297236951
 21
208.9202801185
 31
0.0
  0
LINE
  5
3C5
330
1F
100
AcDbEntity
  8
0
  6
Continuous
 62
     7
370
    15
100
AcDbLine
 10
493.229724768
 20
212.9202803085
 30
0.0
 11
503.7297236951
 21
212.9202803085
 31
0.0
  0
LINE
  5
3C6
330
1F
100
AcDbEntity
  8
0
  6
Continuous
 62
     7
370
    15
100
AcDbLine
 10
493.229724768
 20
208.9202801185
 30
0.0
 11
493.229724768
 21
212.9202803085
 31
0.0
  0
LINE
  5
3C7
330
1F
100
AcDbEntity
  8
0
  6
Continuous
 62
     7
370
    15
100
AcDbLine
 10
483.2297194036
 20
208.9202801185
 30
0.0
 11
493.229724768
 21
208.9202801185
 31
0.0
  0
LINE
  5
3C8
330
1F
100
AcDbEntity
  8
0
  6
Continuous
 62
     7
370
    15
100
AcDbLine
 10
483.2297194036
 20
223.9202797832
 30
0.0
 11
483.2297194036
 21
208.9202801185
 31
0.0
  0
LINE
  5
3C9
330
1F
100
AcDbEntity
  8
0
  6
Continuous
 62
     7
370
    15
100
AcDbLine
 10
480.2297133239
 20
223.9202797832
 30
0.0
 11
483.2297194036
 21
223.9202797832
 31
0.0
  0
LINE
  5
3CA
330
1F
100
AcDbEntity
  8
0
  6
Continuous
 62
     7
370
    15
100
AcDbLine
 10
480.2297133239
 20
208.9202801185
 30
0.0
 11
480.2297133239
 21
223.9202797832
 31
0.0
  0
LINE
  5
3CB
330
1F
100
AcDbEntity
  8
0
  6
Continuous
 62
     7
370
    15
100
AcDbLine
 10
470.2297228607
 20
208.9202801185
 30
0.0
 11
480.2297133239
 21
208.9202801185
 31
0.0
  0
LINE
  5
3CC
330
1F
100
AcDbEntity
  8
0
  6
Continuous
 62
     7
370
    15
100
AcDbLine
 10
470.2297228607
 20
212.9202803085
 30
0.0
 11
470.2297228607
 21
208.9202801185
 31
0.0
  0
LINE
  5
3CD
330
1F
100
AcDbEntity
  8
0
  6
Continuous
 62
     7
370
    15
100
AcDbLine
 10
459.7297239336
 20
212.9202803085
 30
0.0
 11
470.2297228607
 21
212.9202803085
 31
0.0
  0
LINE
  5
3CE
330
1F
100
AcDbEntity
  8
0
  6
Continuous
 62
     7
370
    15
100
AcDbLine
 10
459.7297239336
 20
208.9202801185
 30
0.0
 11
459.7297239336
 21
212.9202803085
 31
0.0
  0
LINE
  5
3CF
330
1F
100
AcDbEntity
  8
0
  6
Continuous
 62
     7
370
    15
100
AcDbLine
 10
449.7297185691
 20
208.9202801185
 30
0.0
 11
459.7297239336
 21
208.9202801185
 31
0.0
  0
LINE
  5
3D0
330
1F
100
AcDbEntity
  8
0
  6
Continuous
 62
     7
370
    15
100
AcDbLine
 10
449.7297185691
 20
223.9202797832
 30
0.0
 11
449.7297185691
 21
208.9202801185
 31
0.0
  0
LINE
  5
3D1
330
1F
100
AcDbEntity
  8
0
  6
Continuous
 62
     7
370
    15
100
AcDbLine
 10
446.72971994
 20
223.9202797832
 30
0.0
 11
449.7297185691
 21
223.9202797832
 31
0.0
  0
LINE
  5
3D2
330
1F
100
AcDbEntity
  8
0
  6
Continuous
 62
     7
370
    15
100
AcDbLine
 10
446.72971994
 20
208.9202801185
 30
0.0
 11
446.72971994
 21
223.9202797832
 31
0.0
  0
LINE
  5
3D3
330
1F
100
AcDbEntity
  8
0
  6
Continuous
 62
     7
370
    15
100
AcDbLine
 10
707.335497441
 20
559.4207462812
 30
0.0
 11
536.8355020902
 21
559.4207462812
 31
0.0
  0
LINE
  5
3D4
330
1F
100
AcDbEntity
  8
0
  6
Continuous
 62
     7
370
    15
100
AcDbLine
 10
536.8355020902
 20
547.4207461769
 30
0.0
 11
539.8355021163
 21
547.4207461769
 31
0.0
  0
LINE
  5
3D5
330
1F
100
AcDbEntity
  8
0
  6
Continuous
 62
     7
370
    15
100
AcDbLine
 10
536.8355020902
 20
559.4207462812
 30
0.0
 11
536.8355020902
 21
547.4207461769
 31
0.0
  0
LINE
  5
3D6
330
1F
100
AcDbEntity
  8
0
  6
Continuous
 62
     7
370
    15
100
AcDbLine
 10
707.335497441
 20
547.4207461769
 30
0.0
 11
707.335497441
 21
559.4207462812
 31
0.0
  0
LINE
  5
3D7
330
1F
100
AcDbEntity
  8
0
  6
Continuous
 62
     7
370
    15
100
AcDbLine
 10
704.3355062625
 20
547.4207461769
 30
0.0
 11
707.335497441
 21
547.4207461769
 31
0.0
  0
LINE
  5
3D8
330
1F
100
AcDbEntity
  8
0
  6
Continuous
 62
     7
370
    15
100
AcDbLine
 10
704.3355062625
 20
542.4207453574
 30
0.0
 11
704.3355062625
 21
547.4207461769
 31
0.0
  0
LINE
  5
3D9
330
1F
100
AcDbEntity
  8
0
  6
Continuous
 62
     7
370
    15
100
AcDbLine
 10
707.335497441
 20
542.4207453574
 30
0.0
 11
704.3355062625
 21
542.4207453574
 31
0.0
  0
LINE
  5
3DA
330
1F
100
AcDbEntity
  8
0
  6
Continuous
 62
     7
370
    15
100
AcDbLine
 10
707.335497441
 20
537.4207454691
 30
0.0
 11
707.335497441
 21
542.4207453574
 31
0.0
  0
LINE
  5
3DB
330
1F
100
AcDbEntity
  8
0
  6
Continuous
 62
     7
370
    15
100
AcDbLine
 10
704.3355062625
 20
537.4207454691
 30
0.0
 11
707.335497441
 21
537.4207454691
 31
0.0
  0
LINE
  5
3DC
330
1F
100
AcDbEntity
  8
0
  6
Continuous
 62
     7
370
    15
100
AcDbLine
 10
704.3355062625
 20
532.4207455809
 30
0.0
 11
704.3355062625
 21
537.4207454691
 31
0.0
  0
LINE
  5
3DD
330
1F
100
AcDbEntity
  8
0
  6
Continuous
 62
     7
370
    15
100
AcDbLine
 10
707.335497441
 20
532.4207455809
 30
0.0
 11
704.3355062625
 21
532.4207455809
 31
0.0
  0
LINE
  5
3DE
330
1F
100
AcDbEntity
  8
0
  6
Continuous
 62
     7
370
    15
100
AcDbLine
 10
707.335497441
 20
527.4207456926
 30
0.0
 11
707.335497441
 21
532.4207455809
 31
0.0
  0
LINE
  5
3DF
330
1F
100
AcDbEntity
  8
0
  6
Continuous
 62
     7
370
    15
100
AcDbLine
 10
704.3355062625
 20
527.4207456926
 30
0.0
 11
707.335497441
 21
527.4207456926
 31
0.0
  0
LINE
  5
3E0
330
1F
100
AcDbEntity
  8
0
  6
Continuous
 62
     7
370
    15
100
AcDbLine
 10
704.3355062625
 20
522.4207458044
 30
0.0
 11
704.3355062625
 21
527.4207456926
 31
0.0
  0
LINE
  5
3E1
330
1F
100
AcDbEntity
  8
0
  6
Continuous
 62
     7
370
    15
100
AcDbLine
 10
707.335497441
 20
522.4207458044
 30
0.0
 11
704.3355062625
 21
522.4207458044
 31
0.0
  0
LINE
  5
3E2
330
1F
100
AcDbEntity
  8
0
  6
Continuous
 62
     7
370
    15
100
AcDbLine
 10
707.335497441
 20
519.4207457783
 30
0.0
 11
707.335497441
 21
522.4207458044
 31
0.0
  0
LINE
  5
3E3
330
1F
100
AcDbEntity
  8
0
  6
Continuous
 62
     7
370
    15
100
AcDbLine
 10
687.3355016133
 20
519.4207457783
 30
0.0
 11
707.335497441
 21
519.4207457783
 31
0.0
  0
LINE
  5
3E4
330
1F
100
AcDbEntity
  8
0
  6
Continuous
 62
     7
370
    15
100
AcDbLine
 10
687.3355016133
 20
522.4207458044
 30
0.0
 11
687.3355016133
 21
519.4207457783
 31
0.0
  0
LINE
  5
3E5
330
1F
100
AcDbEntity
  8
0
  6
Continuous
 62
     7
370
    15
100
AcDbLine
 10
556.8355016431
 20
522.4207458044
 30
0.0
 11
687.3355016133
 21
522.4207458044
 31
0.0
  0
LINE
  5
3E6
330
1F
100
AcDbEntity
  8
0
  6
Continuous
 62
     7
370
    15
100
AcDbLine
 10
556.8355016431
 20
519.4207457783
 30
0.0
 11
556.8355016431
 21
522.4207458044
 31
0.0
  0
LINE
  5
3E7
330
1F
100
AcDbEntity
  8
0
  6
Continuous
 62
     7
370
    15
100
AcDbLine
 10
536.8355020902
 20
519.4207457783
 30
0.0
 11
556.8355016431
 21
519.4207457783
 31
0.0
  0
LINE
  5
3E8
330
1F
100
AcDbEntity
  8
0
  6
Continuous
 62
     7
370
    15
100
AcDbLine
 10
536.8355020902
 20
522.4207458044
 30
0.0
 11
536.8355020902
 21
519.4207457783
 31
0.0
  0
LINE
  5
3E9
330
1F
100
AcDbEntity
  8
0
  6
Continuous
 62
     7
370
    15
100
AcDbLine
 10
539.8355021163
 20
522.4207458044
 30
0.0
 11
536.8355020902
 21
522.4207458044
 31
0.0
  0
LINE
  5
3EA
330
1F
100
AcDbEntity
  8
0
  6
Continuous
 62
     7
370
    15
100
AcDbLine
 10
539.8355021163
 20
527.4207456926
 30
0.0
 11
539.8355021163
 21
522.4207458044
 31
0.0
  0
LINE
  5
3EB
330
1F
100
AcDbEntity
  8
0
  6
Continuous
 62
     7
370
    15
100
AcDbLine
 10
536.8355020902
 20
527.4207456926
 30
0.0
 11
539.8355021163
 21
527.4207456926
 31
0.0
  0
LINE
  5
3EC
330
1F
100
AcDbEntity
  8
0
  6
Continuous
 62
     7
370
    15
100
AcDbLine
 10
536.8355020902
 20
532.4207455809
 30
0.0
 11
536.8355020902
 21
527.4207456926
 31
0.0
  0
LINE
  5
3ED
330
1F
100
AcDbEntity
  8
0
  6
Continuous
 62
     7
370
    15
100
AcDbLine
 10
539.8355021163
 20
532.4207455809
 30
0.0
 11
536.8355020902
 21
532.4207455809
 31
0.0
  0
LINE
  5
3EE
330
1F
100
AcDbEntity
  8
0
  6
Continuous
 62
     7
370
    15
100
AcDbLine
 10
539.8355021163
 20
537.4207454691
 30
0.0
 11
539.8355021163
 21
532.4207455809
 31
0.0
  0
LINE
  5
3EF
330
1F
100
AcDbEntity
  8
0
  6
Continuous
 62
     7
370
    15
100
AcDbLine
 10
536.8355020902
 20
537.4207454691
 30
0.0
 11
539.8355021163
 21
537.4207454691
 31
0.0
  0
LINE
  5
3F0
330
1F
100
AcDbEntity
  8
0
  6
Continuous
 62
     7
370
    15
100
AcDbLine
 10
536.8355020902
 20
542.4207453574
 30
0.0
 11
536.8355020902
 21
537.4207454691
 31
0.0
  0
LINE
  5
3F1
330
1F
100
AcDbEntity
  8
0
  6
Continuous
 62
     7
370
    15
100
AcDbLine
 10
539.8355021163
 20
542.4207453574
 30
0.0
 11
536.8355020902
 21
542.4207453574
 31
0.0
  0
LINE
  5
3F2
330
1F
100
AcDbEntity
  8
0
  6
Continuous
 62
     7
370
    15
100
AcDbLine
 10
539.8355021163
 20
547.4207461769
 30
0.0
 11
539.8355021163
 21
542.4207453574
 31
0.0
  0
LINE
  5
3F3
330
1F
100
AcDbEntity
  8
0
  6
Continuous
 62
     7
370
    15
100
AcDbLine
 10
420.8504358995
 20
50.9456572892
 30
0.0
 11
250.3504405487
 21
50.9456572892
 31
0.0
  0
LINE
  5
3F4
330
1F
100
AcDbEntity
  8
0
  6
Continuous
 62
     7
370
    15
100
AcDbLine
 10
250.3504405487
 20
38.9456571849
 30
0.0
 11
253.3504405747
 21
38.9456571849
 31
0.0
  0
LINE
  5
3F5
330
1F
100
AcDbEntity
  8
0
  6
Continuous
 62
     7
370
    15
100
AcDbLine
 10
250.3504405487
 20
50.9456572892
 30
0.0
 11
250.3504405487
 21
38.9456571849
 31
0.0
  0
LINE
  5
3F6
330
1F
100
AcDbEntity
  8
0
  6
Continuous
 62
     7
370
    15
100
AcDbLine
 10
420.8504358995
 20
38.9456571849
 30
0.0
 11
420.8504358995
 21
50.9456572892
 31
0.0
  0
LINE
  5
3F7
330
1F
100
AcDbEntity
  8
0
  6
Continuous
 62
     7
370
    15
100
AcDbLine
 10
417.850444721
 20
38.9456571849
 30
0.0
 11
420.8504358995
 21
38.9456571849
 31
0.0
  0
LINE
  5
3F8
330
1F
100
AcDbEntity
  8
0
  6
Continuous
 62
     7
370
    15
100
AcDbLine
 10
417.850444721
 20
33.9456563653
 30
0.0
 11
417.850444721
 21
38.9456571849
 31
0.0
  0
LINE
  5
3F9
330
1F
100
AcDbEntity
  8
0
  6
Continuous
 62
     7
370
    15
100
AcDbLine
 10
420.8504358995
 20
33.9456563653
 30
0.0
 11
417.850444721
 21
33.9456563653
 31
0.0
  0
LINE
  5
3FA
330
1F
100
AcDbEntity
  8
0
  6
Continuous
 62
     7
370
    15
100
AcDbLine
 10
420.8504358995
 20
28.945656477
 30
0.0
 11
420.8504358995
 21
33.9456563653
 31
0.0
  0
LINE
  5
3FB
330
1F
100
AcDbEntity
  8
0
  6
Continuous
 62
     7
370
    15
100
AcDbLine
 10
417.850444721
 20
28.945656477
 30
0.0
 11
420.8504358995
 21
28.945656477
 31
0.0
  0
LINE
  5
3FC
330
1F
100
AcDbEntity
  8
0
  6
Continuous
 62
     7
370
    15
100
AcDbLine
 10
417.850444721
 20
23.9456565888
 30
0.0
 11
417.850444721
 21
28.945656477
 31
0.0
  0
LINE
  5
3FD
330
1F
100
AcDbEntity
  8
0
  6
Continuous
 62
     7
370
    15
100
AcDbLine
 10
420.8504358995
 20
23.9456565888
 30
0.0
 11
417.850444721
 21
23.9456565888
 31
0.0
  0
LINE
  5
3FE
330
1F
100
AcDbEntity
  8
0
  6
Continuous
 62
     7
370
    15
100
AcDbLine
 10
420.8504358995
 20
18.9456567006
 30
0.0
 11
420.8504358995
 21
23.9456565888
 31
0.0
  0
LINE
  5
3FF
330
1F
100
AcDbEntity
  8
0
  6
Continuous
 62
     7
370
    15
100
AcDbLine
 10
417.850444721
 20
18.9456567006
 30
0.0
 11
420.8504358995
 21
18.9456567006
 31
0.0
  0
LINE
  5
400
330
1F
100
AcDbEntity
  8
0
  6
Continuous
 62
     7
370
    15
100
AcDbLine
 10
417.850444721
 20
13.9456568123
 30
0.0
 11
417.850444721
 21
18.9456567006
 31
0.0
  0
LINE
  5
401
330
1F
100
AcDbEntity
  8
0
  6
Continuous
 62
     7
370
    15
100
AcDbLine
 10
420.8504358995
 20
13.9456568123
 30
0.0
 11
417.850444721
 21
13.9456568123
 31
0.0
  0
LINE
  5
402
330
1F
100
AcDbEntity
  8
0
  6
Continuous
 62
     7
370
    15
100
AcDbLine
 10
420.8504358995
 20
10.9456567862
 30
0.0
 11
420.8504358995
 21
13.9456568123
 31
0.0
  0
LINE
  5
403
330
1F
100
AcDbEntity
  8
0
  6
Continuous
 62
     7
370
    15
100
AcDbLine
 10
400.8504400718
 20
10.9456567862
 30
0.0
 11
420.8504358995
 21
10.9456567862
 31
0.0
  0
LINE
  5
404
330
1F
100
AcDbEntity
  8
0
  6
Continuous
 62
     7
370
    15
100
AcDbLine
 10
400.8504400718
 20
13.9456568123
 30
0.0
 11
400.8504400718
 21
10.9456567862
 31
0.0
  0
LINE
  5
405
330
1F
100
AcDbEntity
  8
0
  6
Continuous
 62
     7
370
    15
100
AcDbLine
 10
270.3504401016
 20
13.9456568123
 30
0.0
 11
400.8504400718
 21
13.9456568123
 31
0.0
  0
LINE
  5
406
330
1F
100
AcDbEntity
  8
0
  6
Continuous
 62
     7
370
    15
100
AcDbLine
 10
270.3504401016
 20
10.9456567862
 30
0.0
 11
270.3504401016
 21
13.9456568123
 31
0.0
  0
LINE
  5
407
330
1F
100
AcDbEntity
  8
0
  6
Continuous
 62
     7
370
    15
100
AcDbLine
 10
250.3504405487
 20
10.9456567862
 30
0.0
 11
270.3504401016
 21
10.9456567862
 31
0.0
  0
LINE
  5
408
330
1F
100
AcDbEntity
  8
0
  6
Continuous
 62
     7
370
    15
100
AcDbLine
 10
250.3504405487
 20
13.9456568123
 30
0.0
 11
250.3504405487
 21
10.9456567862
 31
0.0
  0
LINE
  5
409
330
1F
100
AcDbEntity
  8
0
  6
Continuous
 62
     7
370
    15
100
AcDbLine
 10
253.3504405747
 20
13.9456568123
 30
0.0
 11
250.3504405487
 21
13.9456568123
 31
0.0
  0
LINE
  5
40A
330
1F
100
AcDbEntity
  8
0
  6
Continuous
 62
     7
370
    15
100
AcDbLine
 10
253.3504405747
 20
18.9456567006
 30
0.0
 11
253.3504405747
 21
13.9456568123
 31
0.0
  0
LINE
  5
40B
330
1F
100
AcDbEntity
  8
0
  6
Continuous
 62
     7
370
    15
100
AcDbLine
 10
250.3504405487
 20
18.9456567006
 30
0.0
 11
253.3504405747
 21
18.9456567006
 31
0.0
  0
LINE
  5
40C
330
1F
100
AcDbEntity
  8
0
  6
Continuous
 62
     7
370
    15
100
AcDbLine
 10
250.3504405487
 20
23.9456565888
 30
0.0
 11
250.3504405487
 21
18.9456567006
 31
0.0
  0
LINE
  5
40D
330
1F
100
AcDbEntity
  8
0
  6
Continuous
 62
     7
370
    15
100
AcDbLine
 10
253.3504405747
 20
23.9456565888
 30
0.0
 11
250.3504405487
 21
23.9456565888
 31
0.0
  0
LINE
  5
40E
330
1F
100
AcDbEntity
  8
0
  6
Continuous
 62
     7
370
    15
100
AcDbLine
 10
253.3504405747
 20
28.945656477
 30
0.0
 11
253.3504405747
 21
23.9456565888
 31
0.0
  0
LINE
  5
40F
330
1F
100
AcDbEntity
  8
0
  6
Continuous
 62
     7
370
    15
100
AcDbLine
 10
250.3504405487
 20
28.945656477
 30
0.0
 11
253.3504405747
 21
28.945656477
 31
0.0
  0
LINE
  5
410
330
1F
100
AcDbEntity
  8
0
  6
Continuous
 62
     7
370
    15
100
AcDbLine
 10
250.3504405487
 20
33.9456563653
 30
0.0
 11
250.3504405487
 21
28.945656477
 31
0.0
  0
LINE
  5
411
330
1F
100
AcDbEntity
  8
0
  6
Continuous
 62
     7
370
    15
100
AcDbLine
 10
253.3504405747
 20
33.9456563653
 30
0.0
 11
250.3504405487
 21
33.9456563653
 31
0.0
  0
LINE
  5
412
330
1F
100
AcDbEntity
  8
0
  6
Continuous
 62
     7
370
    15
100
AcDbLine
 10
253.3504405747
 20
38.9456571849
 30
0.0
 11
253.3504405747
 21
33.9456563653
 31
0.0
  0
LINE
  5
413
330
1F
100
AcDbEntity
  8
0
  6
Continuous
 62
     7
370
    15
100
AcDbLine
 10
197.2962216172
 20
50.9636777142
 30
0.0
 11
26.7962262664
 21
50.9636777142
 31
0.0
  0
LINE
  5
414
330
1F
100
AcDbEntity
  8
0
  6
Continuous
 62
     7
370
    15
100
AcDbLine
 10
26.7962262664
 20
38.9636776098
 30
0.0
 11
29.7962262924
 21
38.9636776098
 31
0.0
  0
LINE
  5
415
330
1F
100
AcDbEntity
  8
0
  6
Continuous
 62
     7
370
    15
100
AcDbLine
 10
26.7962262664
 20
50.9636777142
 30
0.0
 11
26.7962262664
 21
38.9636776098
 31
0.0
  0
LINE
  5
416
330
1F
100
AcDbEntity
  8
0
  6
Continuous
 62
     7
370
    15
100
AcDbLine
 10
197.2962216172
 20
38.9636776098
 30
0.0
 11
197.2962216172
 21
50.9636777142
 31
0.0
  0
LINE
  5
417
330
1F
100
AcDbEntity
  8
0
  6
Continuous
 62
     7
370
    15
100
AcDbLine
 10
194.2962304387
 20
38.9636776098
 30
0.0
 11
197.2962216172
 21
38.9636776098
 31
0.0
  0
LINE
  5
418
330
1F
100
AcDbEntity
  8
0
  6
Continuous
 62
     7
370
    15
100
AcDbLine
 10
194.2962304387
 20
33.9636767903
 30
0.0
 11
194.2962304387
 21
38.9636776098
 31
0.0
  0
LINE
  5
419
330
1F
100
AcDbEntity
  8
0
  6
Continuous
 62
     7
370
    15
100
AcDbLine
 10
197.2962216172
 20
33.9636767903
 30
0.0
 11
194.2962304387
 21
33.9636767903
 31
0.0
  0
LINE
  5
41A
330
1F
100
AcDbEntity
  8
0
  6
Continuous
 62
     7
370
    15
100
AcDbLine
 10
197.2962216172
 20
28.963676902
 30
0.0
 11
197.2962216172
 21
33.9636767903
 31
0.0
  0
LINE
  5
41B
330
1F
100
AcDbEntity
  8
0
  6
Continuous
 62
     7
370
    15
100
AcDbLine
 10
194.2962304387
 20
28.963676902
 30
0.0
 11
197.2962216172
 21
28.963676902
 31
0.0
  0
LINE
  5
41C
330
1F
100
AcDbEntity
  8
0
  6
Continuous
 62
     7
370
    15
100
AcDbLine
 10
194.2962304387
 20
23.9636770138
 30
0.0
 11
194.2962304387
 21
28.963676902
 31
0.0
  0
LINE
  5
41D
330
1F
100
AcDbEntity
  8
0
  6
Continuous
 62
     7
370
    15
100
AcDbLine
 10
197.2962216172
 20
23.9636770138
 30
0.0
 11
194.2962304387
 21
23.9636770138
 31
0.0
  0
LINE
  5
41E
330
1F
100
AcDbEntity
  8
0
  6
Continuous
 62
     7
370
    15
100
AcDbLine
 10
197.2962216172
 20
18.9636771256
 30
0.0
 11
197.2962216172
 21
23.9636770138
 31
0.0
  0
LINE
  5
41F
330
1F
100
AcDbEntity
  8
0
  6
Continuous
 62
     7
370
    15
100
AcDbLine
 10
194.2962304387
 20
18.9636771256
 30
0.0
 11
197.2962216172
 21
18.9636771256
 31
0.0
  0
LINE
  5
420
330
1F
100
AcDbEntity
  8
0
  6
Continuous
 62
     7
370
    15
100
AcDbLine
 10
194.2962304387
 20
13.9636772373
 30
0.0
 11
194.2962304387
 21
18.9636771256
 31
0.0
  0
LINE
  5
421
330
1F
100
AcDbEntity
  8
0
  6
Continuous
 62
     7
370
    15
100
AcDbLine
 10
197.2962216172
 20
13.9636772373
 30
0.0
 11
194.2962304387
 21
13.9636772373
 31
0.0
  0
LINE
  5
422
330
1F
100
AcDbEntity
  8
0
  6
Continuous
 62
     7
370
    15
100
AcDbLine
 10
197.2962216172
 20
10.9636772112
 30
0.0
 11
197.2962216172
 21
13.9636772373
 31
0.0
  0
LINE
  5
423
330
1F
100
AcDbEntity
  8
0
  6
Continuous
 62
     7
370
    15
100
AcDbLine
 10
177.2962257895
 20
10.9636772112
 30
0.0
 11
197.2962216172
 21
10.9636772112
 31
0.0
  0
LINE
  5
424
330
1F
100
AcDbEntity
  8
0
  6
Continuous
 62
     7
370
    15
100
AcDbLine
 10
177.2962257895
 20
13.9636772373
 30
0.0
 11
177.2962257895
 21
10.9636772112
 31
0.0
  0
LINE
  5
425
330
1F
100
AcDbEntity
  8
0
  6
Continuous
 62
     7
370
    15
100
AcDbLine
 10
46.7962258193
 20
13.9636772373
 30
0.0
 11
177.2962257895
 21
13.9636772373
 31
0.0
  0
LINE
  5
426
330
1F
100
AcDbEntity
  8
0
  6
Continuous
 62
     7
370
    15
100
AcDbLine
 10
46.7962258193
 20
10.9636772112
 30
0.0
 11
46.7962258193
 21
13.9636772373
 31
0.0
  0
LINE
  5
427
330
1F
100
AcDbEntity
  8
0
  6
Continuous
 62
     7
370
    15
100
AcDbLine
 10
26.7962262664
 20
10.9636772112
 30
0.0
 11
46.7962258193
 21
10.9636772112
 31
0.0
  0
LINE
  5
428
330
1F
100
AcDbEntity
  8
0
  6
Continuous
 62
     7
370
    15
100
AcDbLine
 10
26.7962262664
 20
13.9636772373
 30
0.0
 11
26.7962262664
 21
10.9636772112
 31
0.0
  0
LINE
  5
429
330
1F
100
AcDbEntity
  8
0
  6
Continuous
 62
     7
370
    15
100
AcDbLine
 10
29.7962262924
 20
13.9636772373
 30
0.0
 11
26.7962262664
 21
13.9636772373
 31
0.0
  0
LINE
  5
42A
330
1F
100
AcDbEntity
  8
0
  6
Continuous
 62
     7
370
    15
100
AcDbLine
 10
29.7962262924
 20
18.9636771256
 30
0.0
 11
29.7962262924
 21
13.9636772373
 31
0.0
  0
LINE
  5
42B
330
1F
100
AcDbEntity
  8
0
  6
Continuous
 62
     7
370
    15
100
AcDbLine
 10
26.7962262664
 20
18.9636771256
 30
0.0
 11
29.7962262924
 21
18.9636771256
 31
0.0
  0
LINE
  5
42C
330
1F
100
AcDbEntity
  8
0
  6
Continuous
 62
     7
370
    15
100
AcDbLine
 10
26.7962262664
 20
23.9636770138
 30
0.0
 11
26.7962262664
 21
18.9636771256
 31
0.0
  0
LINE
  5
42D
330
1F
100
AcDbEntity
  8
0
  6
Continuous
 62
     7
370
    15
100
AcDbLine
 10
29.7962262924
 20
23.9636770138
 30
0.0
 11
26.7962262664
 21
23.9636770138
 31
0.0
  0
LINE
  5
42E
330
1F
100
AcDbEntity
  8
0
  6
Continuous
 62
     7
370
    15
100
AcDbLine
 10
29.7962262924
 20
28.963676902
 30
0.0
 11
29.7962262924
 21
23.9636770138
 31
0.0
  0
LINE
  5
42F
330
1F
100
AcDbEntity
  8
0
  6
Continuous
 62
     7
370
    15
100
AcDbLine
 10
26.7962262664
 20
28.963676902
 30
0.0
 11
29.7962262924
 21
28.963676902
 31
0.0
  0
LINE
  5
430
330
1F
100
AcDbEntity
  8
0
  6
Continuous
 62
     7
370
    15
100
AcDbLine
 10
26.7962262664
 20
33.9636767903
 30
0.0
 11
26.7962262664
 21
28.963676902
 31
0.0
  0
LINE
  5
431
330
1F
100
AcDbEntity
  8
0
  6
Continuous
 62
     7
370
    15
100
AcDbLine
 10
29.7962262924
 20
33.9636767903
 30
0.0
 11
26.7962262664
 21
33.9636767903
 31
0.0
  0
LINE
  5
432
330
1F
100
AcDbEntity
  8
0
  6
Continuous
 62
     7
370
    15
100
AcDbLine
 10
29.7962262924
 20
38.9636776098
 30
0.0
 11
29.7962262924
 21
33.9636767903
 31
0.0
  0
LINE
  5
433
330
1F
100
AcDbEntity
  8
0
  6
Continuous
 62
     7
370
     0
100
AcDbLine
 10
0.9886840288
 20
3.2712419824
 30
0.0
 11
723.4783151367
 21
3.2712419824
 31
0.0
  0
LINE
  5
434
330
1F
100
AcDbEntity
  8
0
  6
Continuous
 62
     7
370
     0
100
AcDbLine
 10
0.9886840288
 20
3.2712419824
 30
0.0
 11
0.9886840288
 21
600.2019954511
 31
0.0
  0
LINE
  5
435
330
1F
100
AcDbEntity
  8
0
  6
Continuous
 62
     7
370
     0
100
AcDbLine
 10
0.9886840288
 20
600.2019954511
 30
0.0
 11
723.4783151367
 21
600.2019954511
 31
0.0
  0
LINE
  5
436
330
1F
100
AcDbEntity
  8
0
  6
Continuous
 62
     7
370
     0
100
AcDbLine
 10
723.4783151367
 20
3.2712419824
 30
0.0
 11
723.4783151367
 21
600.2019954511
 31
0.0
  0
LINE
  5
437
330
1F
100
AcDbEntity
  8
0
  6
Continuous
 62
     7
370
    15
100
AcDbLine
 10
267.6398412385
 20
95.0376959151
 30
0.0
 11
267.6398412385
 21
92.0376961219
 31
0.0
  0
LINE
  5
438
330
1F
100
AcDbEntity
  8
0
  6
Continuous
 62
     7
370
    15
100
AcDbLine
 10
267.6398412385
 20
92.0376961219
 30
0.0
 11
247.639840987
 21
92.0376961219
 31
0.0
  0
LINE
  5
439
330
1F
100
AcDbEntity
  8
0
  6
Continuous
 62
     7
370
    15
100
AcDbLine
 10
247.639840987
 20
92.0376961219
 30
0.0
 11
247.639840987
 21
95.0376959151
 31
0.0
  0
LINE
  5
43A
330
1F
100
AcDbEntity
  8
0
  6
Continuous
 62
     7
370
    15
100
AcDbLine
 10
247.639840987
 20
95.0376959151
 30
0.0
 11
250.6398410131
 21
95.0376959151
 31
0.0
  0
LINE
  5
43B
330
1F
100
AcDbEntity
  8
0
  6
Continuous
 62
     7
370
    15
100
AcDbLine
 10
250.6398410131
 20
95.0376959151
 30
0.0
 11
250.6398410131
 21
100.0376960362
 31
0.0
  0
LINE
  5
43C
330
1F
100
AcDbEntity
  8
0
  6
Continuous
 62
     7
370
    15
100
AcDbLine
 10
250.6398410131
 20
100.0376960362
 30
0.0
 11
247.639840987
 21
100.0376960362
 31
0.0
  0
LINE
  5
43D
330
1F
100
AcDbEntity
  8
0
  6
Continuous
 62
     7
370
    15
100
AcDbLine
 10
247.639840987
 20
100.0376960362
 30
0.0
 11
247.639840987
 21
105.0376963901
 31
0.0
  0
LINE
  5
43E
330
1F
100
AcDbEntity
  8
0
  6
Continuous
 62
     7
370
    15
100
AcDbLine
 10
247.639840987
 20
105.0376963901
 30
0.0
 11
250.6398410131
 21
105.0376963901
 31
0.0
  0
LINE
  5
43F
330
1F
100
AcDbEntity
  8
0
  6
Continuous
 62
     7
370
    15
100
AcDbLine
 10
250.6398410131
 20
105.0376963901
 30
0.0
 11
250.6398410131
 21
110.0376962783
 31
0.0
  0
LINE
  5
440
330
1F
100
AcDbEntity
  8
0
  6
Continuous
 62
     7
370
    15
100
AcDbLine
 10
250.6398410131
 20
110.0376962783
 30
0.0
 11
247.639840987
 21
110.0376962783
 31
0.0
  0
LINE
  5
441
330
1F
100
AcDbEntity
  8
0
  6
Continuous
 62
     7
370
    15
100
AcDbLine
 10
247.639840987
 20
110.0376962783
 30
0.0
 11
247.639840987
 21
115.0376952353
 31
0.0
  0
LINE
  5
442
330
1F
100
AcDbEntity
  8
0
  6
Continuous
 62
     7
370
    15
100
AcDbLine
 10
247.639840987
 20
115.0376952353
 30
0.0
 11
250.6398410131
 21
115.0376952353
 31
0.0
  0
LINE
  5
443
330
1F
100
AcDbEntity
  8
0
  6
Continuous
 62
     7
370
    15
100
AcDbLine
 10
250.6398410131
 20
115.0376952353
 30
0.0
 11
250.6398410131
 21
120.0376960548
 31
0.0
  0
LINE
  5
444
330
1F
100
AcDbEntity
  8
0
  6
Continuous
 62
     7
370
    15
100
AcDbLine
 10
250.6398410131
 20
120.0376960548
 30
0.0
 11
247.639840987
 21
120.0376960548
 31
0.0
  0
LINE
  5
445
330
1F
100
AcDbEntity
  8
0
  6
Continuous
 62
     7
370
    15
100
AcDbLine
 10
247.639840987
 20
120.0376960548
 30
0.0
 11
247.639840987
 21
125.0376968744
 31
0.0
  0
LINE
  5
446
330
1F
100
AcDbEntity
  8
0
  6
Continuous
 62
     7
370
    15
100
AcDbLine
 10
247.639840987
 20
125.0376968744
 30
0.0
 11
418.1398407616
 21
125.0376968744
 31
0.0
  0
LINE
  5
447
330
1F
100
AcDbEntity
  8
0
  6
Continuous
 62
     7
370
    15
100
AcDbLine
 10
418.1398407616
 20
120.0376960548
 30
0.0
 11
418.1398407616
 21
125.0376968744
 31
0.0
  0
LINE
  5
448
330
1F
100
AcDbEntity
  8
0
  6
Continuous
 62
     7
370
    15
100
AcDbLine
 10
415.1398346819
 20
120.0376960548
 30
0.0
 11
418.1398407616
 21
120.0376960548
 31
0.0
  0
LINE
  5
449
330
1F
100
AcDbEntity
  8
0
  6
Continuous
 62
     7
370
    15
100
AcDbLine
 10
415.1398346819
 20
115.0376952353
 30
0.0
 11
415.1398346819
 21
120.0376960548
 31
0.0
  0
LINE
  5
44A
330
1F
100
AcDbEntity
  8
0
  6
Continuous
 62
     7
370
    15
100
AcDbLine
 10
418.1398407616
 20
115.0376952353
 30
0.0
 11
415.1398346819
 21
115.0376952353
 31
0.0
  0
LINE
  5
44B
330
1F
100
AcDbEntity
  8
0
  6
Continuous
 62
     7
370
    15
100
AcDbLine
 10
418.1398407616
 20
110.0376962783
 30
0.0
 11
418.1398407616
 21
115.0376952353
 31
0.0
  0
LINE
  5
44C
330
1F
100
AcDbEntity
  8
0
  6
Continuous
 62
     7
370
    15
100
AcDbLine
 10
415.1398346819
 20
110.0376962783
 30
0.0
 11
418.1398407616
 21
110.0376962783
 31
0.0
  0
LINE
  5
44D
330
1F
100
AcDbEntity
  8
0
  6
Continuous
 62
     7
370
    15
100
AcDbLine
 10
415.1398346819
 20
105.0376963901
 30
0.0
 11
415.1398346819
 21
110.0376962783
 31
0.0
  0
LINE
  5
44E
330
1F
100
AcDbEntity
  8
0
  6
Continuous
 62
     7
370
    15
100
AcDbLine
 10
418.1398407616
 20
105.0376963901
 30
0.0
 11
415.1398346819
 21
105.0376963901
 31
0.0
  0
LINE
  5
44F
330
1F
100
AcDbEntity
  8
0
  6
Continuous
 62
     7
370
    15
100
AcDbLine
 10
418.1398407616
 20
100.0376960362
 30
0.0
 11
418.1398407616
 21
105.0376963901
 31
0.0
  0
LINE
  5
450
330
1F
100
AcDbEntity
  8
0
  6
Continuous
 62
     7
370
    15
100
AcDbLine
 10
415.1398346819
 20
100.0376960362
 30
0.0
 11
418.1398407616
 21
100.0376960362
 31
0.0
  0
LINE
  5
451
330
1F
100
AcDbEntity
  8
0
  6
Continuous
 62
     7
370
    15
100
AcDbLine
 10
415.1398346819
 20
95.0376959151
 30
0.0
 11
415.1398346819
 21
100.0376960362
 31
0.0
  0
LINE
  5
452
330
1F
100
AcDbEntity
  8
0
  6
Continuous
 62
     7
370
    15
100
AcDbLine
 10
415.1398346819
 20
95.0376959151
 30
0.0
 11
418.1398407616
 21
95.0376959151
 31
0.0
  0
LINE
  5
453
330
1F
100
AcDbEntity
  8
0
  6
Continuous
 62
     7
370
    15
100
AcDbLine
 10
418.1398407616
 20
92.0376961219
 30
0.0
 11
418.1398407616
 21
95.0376959151
 31
0.0
  0
LINE
  5
454
330
1F
100
AcDbEntity
  8
0
  6
Continuous
 62
     7
370
    15
100
AcDbLine
 10
398.1398449339
 20
92.0376961219
 30
0.0
 11
418.1398407616
 21
92.0376961219
 31
0.0
  0
LINE
  5
455
330
1F
100
AcDbEntity
  8
0
  6
Continuous
 62
     7
370
    15
100
AcDbLine
 10
398.1398449339
 20
95.0376959151
 30
0.0
 11
398.1398449339
 21
92.0376961219
 31
0.0
  0
LINE
  5
456
330
1F
100
AcDbEntity
  8
0
  6
Continuous
 62
     7
370
    15
100
AcDbLine
 10
398.1398449339
 20
95.0376959151
 30
0.0
 11
267.6398412385
 21
95.0376959151
 31
0.0
  0
LINE
  5
457
330
1F
100
AcDbEntity
  8
0
  6
Continuous
 62
     7
370
    15
100
AcDbLine
 10
565.0884660277
 20
301.5964265857
 30
0.0
 11
565.0884660277
 21
298.5964267925
 31
0.0
  0
LINE
  5
458
330
1F
100
AcDbEntity
  8
0
  6
Continuous
 62
     7
370
    15
100
AcDbLine
 10
565.0884660277
 20
298.5964267925
 30
0.0
 11
545.0884657762
 21
298.5964267925
 31
0.0
  0
LINE
  5
459
330
1F
100
AcDbEntity
  8
0
  6
Continuous
 62
     7
370
    15
100
AcDbLine
 10
545.0884657762
 20
298.5964267925
 30
0.0
 11
545.0884657762
 21
301.5964265857
 31
0.0
  0
LINE
  5
45A
330
1F
100
AcDbEntity
  8
0
  6
Continuous
 62
     7
370
    15
100
AcDbLine
 10
545.0884657762
 20
301.5964265857
 30
0.0
 11
548.0884658023
 21
301.5964265857
 31
0.0
  0
LINE
  5
45B
330
1F
100
AcDbEntity
  8
0
  6
Continuous
 62
     7
370
    15
100
AcDbLine
 10
548.0884658023
 20
301.5964265857
 30
0.0
 11
548.0884658023
 21
306.5964267068
 31
0.0
  0
LINE
  5
45C
330
1F
100
AcDbEntity
  8
0
  6
Continuous
 62
     7
370
    15
100
AcDbLine
 10
548.0884658023
 20
306.5964267068
 30
0.0
 11
545.0884657762
 21
306.5964267068
 31
0.0
  0
LINE
  5
45D
330
1F
100
AcDbEntity
  8
0
  6
Continuous
 62
     7
370
    15
100
AcDbLine
 10
545.0884657762
 20
306.5964267068
 30
0.0
 11
545.0884657762
 21
311.5964270607
 31
0.0
  0
LINE
  5
45E
330
1F
100
AcDbEntity
  8
0
  6
Continuous
 62
     7
370
    15
100
AcDbLine
 10
545.0884657762
 20
311.5964270607
 30
0.0
 11
548.0884658023
 21
311.5964270607
 31
0.0
  0
LINE
  5
45F
330
1F
100
AcDbEntity
  8
0
  6
Continuous
 62
     7
370
    15
100
AcDbLine
 10
548.0884658023
 20
311.5964270607
 30
0.0
 11
548.0884658023
 21
316.5964269489
 31
0.0
  0
LINE
  5
460
330
1F
100
AcDbEntity
  8
0
  6
Continuous
 62
     7
370
    15
100
AcDbLine
 10
548.0884658023
 20
316.5964269489
 30
0.0
 11
545.0884657762
 21
316.5964269489
 31
0.0
  0
LINE
  5
461
330
1F
100
AcDbEntity
  8
0
  6
Continuous
 62
     7
370
    15
100
AcDbLine
 10
545.0884657762
 20
316.5964269489
 30
0.0
 11
545.0884657762
 21
321.5964259059
 31
0.0
  0
LINE
  5
462
330
1F
100
AcDbEntity
  8
0
  6
Continuous
 62
     7
370
    15
100
AcDbLine
 10
545.0884657762
 20
321.5964259059
 30
0.0
 11
548.0884658023
 21
321.5964259059
 31
0.0
  0
LINE
  5
463
330
1F
100
AcDbEntity
  8
0
  6
Continuous
 62
     7
370
    15
100
AcDbLine
 10
548.0884658023
 20
321.5964259059
 30
0.0
 11
548.0884658023
 21
326.5964267254
 31
0.0
  0
LINE
  5
464
330
1F
100
AcDbEntity
  8
0
  6
Continuous
 62
     7
370
    15
100
AcDbLine
 10
548.0884658023
 20
326.5964267254
 30
0.0
 11
545.0884657762
 21
326.5964267254
 31
0.0
  0
LINE
  5
465
330
1F
100
AcDbEntity
  8
0
  6
Continuous
 62
     7
370
    15
100
AcDbLine
 10
545.0884657762
 20
326.5964267254
 30
0.0
 11
545.0884657762
 21
331.596427545
 31
0.0
  0
LINE
  5
466
330
1F
100
AcDbEntity
  8
0
  6
Continuous
 62
     7
370
    15
100
AcDbLine
 10
545.0884657762
 20
331.596427545
 30
0.0
 11
715.5884655508
 21
331.596427545
 31
0.0
  0
LINE
  5
467
330
1F
100
AcDbEntity
  8
0
  6
Continuous
 62
     7
370
    15
100
AcDbLine
 10
715.5884655508
 20
326.5964267254
 30
0.0
 11
715.5884655508
 21
331.596427545
 31
0.0
  0
LINE
  5
468
330
1F
100
AcDbEntity
  8
0
  6
Continuous
 62
     7
370
    15
100
AcDbLine
 10
712.5884594712
 20
326.5964267254
 30
0.0
 11
715.5884655508
 21
326.5964267254
 31
0.0
  0
LINE
  5
469
330
1F
100
AcDbEntity
  8
0
  6
Continuous
 62
     7
370
    15
100
AcDbLine
 10
712.5884594712
 20
321.5964259059
 30
0.0
 11
712.5884594712
 21
326.5964267254
 31
0.0
  0
LINE
  5
46A
330
1F
100
AcDbEntity
  8
0
  6
Continuous
 62
     7
370
    15
100
AcDbLine
 10
715.5884655508
 20
321.5964259059
 30
0.0
 11
712.5884594712
 21
321.5964259059
 31
0.0
  0
LINE
  5
46B
330
1F
100
AcDbEntity
  8
0
  6
Continuous
 62
     7
370
    15
100
AcDbLine
 10
715.5884655508
 20
316.5964269489
 30
0.0
 11
715.5884655508
 21
321.5964259059
 31
0.0
  0
LINE
  5
46C
330
1F
100
AcDbEntity
  8
0
  6
Continuous
 62
     7
370
    15
100
AcDbLine
 10
712.5884594712
 20
316.5964269489
 30
0.0
 11
715.5884655508
 21
316.5964269489
 31
0.0
  0
LINE
  5
46D
330
1F
100
AcDbEntity
  8
0
  6
Continuous
 62
     7
370
    15
100
AcDbLine
 10
712.5884594712
 20
311.5964270607
 30
0.0
 11
712.5884594712
 21
316.5964269489
 31
0.0
  0
LINE
  5
46E
330
1F
100
AcDbEntity
  8
0
  6
Continuous
 62
     7
370
    15
100
AcDbLine
 10
715.5884655508
 20
311.5964270607
 30
0.0
 11
712.5884594712
 21
311.5964270607
 31
0.0
  0
LINE
  5
46F
330
1F
100
AcDbEntity
  8
0
  6
Continuous
 62
     7
370
    15
100
AcDbLine
 10
715.5884655508
 20
306.5964267068
 30
0.0
 11
715.5884655508
 21
311.5964270607
 31
0.0
  0
LINE
  5
470
330
1F
100
AcDbEntity
  8
0
  6
Continuous
 62
     7
370
    15
100
AcDbLine
 10
712.5884594712
 20
306.5964267068
 30
0.0
 11
715.5884655508
 21
306.5964267068
 31
0.0
  0
LINE
  5
471
330
1F
100
AcDbEntity
  8
0
  6
Continuous
 62
     7
370
    15
100
AcDbLine
 10
712.5884594712
 20
301.5964265857
 30
0.0
 11
712.5884594712
 21
306.5964267068
 31
0.0
  0
LINE
  5
472
330
1F
100
AcDbEntity
  8
0
  6
Continuous
 62
     7
370
    15
100
AcDbLine
 10
712.5884594712
 20
301.5964265857
 30
0.0
 11
715.5884655508
 21
301.5964265857
 31
0.0
  0
LINE
  5
473
330
1F
100
AcDbEntity
  8
0
  6
Continuous
 62
     7
370
    15
100
AcDbLine
 10
715.5884655508
 20
298.5964267925
 30
0.0
 11
715.5884655508
 21
301.5964265857
 31
0.0
  0
LINE
  5
474
330
1F
100
AcDbEntity
  8
0
  6
Continuous
 62
     7
370
    15
100
AcDbLine
 10
695.5884697232
 20
298.5964267925
 30
0.0
 11
715.5884655508
 21
298.5964267925
 31
0.0
  0
LINE
  5
475
330
1F
100
AcDbEntity
  8
0
  6
Continuous
 62
     7
370
    15
100
AcDbLine
 10
695.5884697232
 20
301.5964265857
 30
0.0
 11
695.5884697232
 21
298.5964267925
 31
0.0
  0
LINE
  5
476
330
1F
100
AcDbEntity
  8
0
  6
Continuous
 62
     7
370
    15
100
AcDbLine
 10
695.5884697232
 20
301.5964265857
 30
0.0
 11
565.0884660277
 21
301.5964265857
 31
0.0
  0
LINE
  5
477
330
1F
100
AcDbEntity
  8
0
  6
Continuous
 62
     7
370
    15
100
AcDbLine
 10
47.4726396655
 20
95.0023565363
 30
0.0
 11
47.4726396655
 21
92.0023567431
 31
0.0
  0
LINE
  5
478
330
1F
100
AcDbEntity
  8
0
  6
Continuous
 62
     7
370
    15
100
AcDbLine
 10
47.4726396655
 20
92.0023567431
 30
0.0
 11
27.4726394141
 21
92.0023567431
 31
0.0
  0
LINE
  5
479
330
1F
100
AcDbEntity
  8
0
  6
Continuous
 62
     7
370
    15
100
AcDbLine
 10
27.4726394141
 20
92.0023567431
 30
0.0
 11
27.4726394141
 21
95.0023565363
 31
0.0
  0
LINE
  5
47A
330
1F
100
AcDbEntity
  8
0
  6
Continuous
 62
     7
370
    15
100
AcDbLine
 10
27.4726394141
 20
95.0023565363
 30
0.0
 11
30.4726394401
 21
95.0023565363
 31
0.0
  0
LINE
  5
47B
330
1F
100
AcDbEntity
  8
0
  6
Continuous
 62
     7
370
    15
100
AcDbLine
 10
30.4726394401
 20
95.0023565363
 30
0.0
 11
30.4726394401
 21
100.0023566574
 31
0.0
  0
LINE
  5
47C
330
1F
100
AcDbEntity
  8
0
  6
Continuous
 62
     7
370
    15
100
AcDbLine
 10
30.4726394401
 20
100.0023566574
 30
0.0
 11
27.4726394141
 21
100.0023566574
 31
0.0
  0
LINE
  5
47D
330
1F
100
AcDbEntity
  8
0
  6
Continuous
 62
     7
370
    15
100
AcDbLine
 10
27.4726394141
 20
100.0023566574
 30
0.0
 11
27.4726394141
 21
105.0023570113
 31
0.0
  0
LINE
  5
47E
330
1F
100
AcDbEntity
  8
0
  6
Continuous
 62
     7
370
    15
100
AcDbLine
 10
27.4726394141
 20
105.0023570113
 30
0.0
 11
30.4726394401
 21
105.0023570113
 31
0.0
  0
LINE
  5
47F
330
1F
100
AcDbEntity
  8
0
  6
Continuous
 62
     7
370
    15
100
AcDbLine
 10
30.4726394401
 20
105.0023570113
 30
0.0
 11
30.4726394401
 21
110.0023568996
 31
0.0
  0
LINE
  5
480
330
1F
100
AcDbEntity
  8
0
  6
Continuous
 62
     7
370
    15
100
AcDbLine
 10
30.4726394401
 20
110.0023568996
 30
0.0
 11
27.4726394141
 21
110.0023568996
 31
0.0
  0
LINE
  5
481
330
1F
100
AcDbEntity
  8
0
  6
Continuous
 62
     7
370
    15
100
AcDbLine
 10
27.4726394141
 20
110.0023568996
 30
0.0
 11
27.4726394141
 21
115.0023558565
 31
0.0
  0
LINE
  5
482
330
1F
100
AcDbEntity
  8
0
  6
Continuous
 62
     7
370
    15
100
AcDbLine
 10
27.4726394141
 20
115.0023558565
 30
0.0
 11
30.4726394401
 21
115.0023558565
 31
0.0
  0
LINE
  5
483
330
1F
100
AcDbEntity
  8
0
  6
Continuous
 62
     7
370
    15
100
AcDbLine
 10
30.4726394401
 20
115.0023558565
 30
0.0
 11
30.4726394401
 21
120.002356676
 31
0.0
  0
LINE
  5
484
330
1F
100
AcDbEntity
  8
0
  6
Continuous
 62
     7
370
    15
100
AcDbLine
 10
30.4726394401
 20
120.002356676
 30
0.0
 11
27.4726394141
 21
120.002356676
 31
0.0
  0
LINE
  5
485
330
1F
100
AcDbEntity
  8
0
  6
Continuous
 62
     7
370
    15
100
AcDbLine
 10
27.4726394141
 20
120.002356676
 30
0.0
 11
27.4726394141
 21
125.0023574956
 31
0.0
  0
LINE
  5
486
330
1F
100
AcDbEntity
  8
0
  6
Continuous
 62
     7
370
    15
100
AcDbLine
 10
27.4726394141
 20
125.0023574956
 30
0.0
 11
197.9726391887
 21
125.0023574956
 31
0.0
  0
LINE
  5
487
330
1F
100
AcDbEntity
  8
0
  6
Continuous
 62
     7
370
    15
100
AcDbLine
 10
197.9726391887
 20
120.002356676
 30
0.0
 11
197.9726391887
 21
125.0023574956
 31
0.0
  0
LINE
  5
488
330
1F
100
AcDbEntity
  8
0
  6
Continuous
 62
     7
370
    15
100
AcDbLine
 10
194.972633109
 20
120.002356676
 30
0.0
 11
197.9726391887
 21
120.002356676
 31
0.0
  0
LINE
  5
489
330
1F
100
AcDbEntity
  8
0
  6
Continuous
 62
     7
370
    15
100
AcDbLine
 10
194.972633109
 20
115.0023558565
 30
0.0
 11
194.972633109
 21
120.002356676
 31
0.0
  0
LINE
  5
48A
330
1F
100
AcDbEntity
  8
0
  6
Continuous
 62
     7
370
    15
100
AcDbLine
 10
197.9726391887
 20
115.0023558565
 30
0.0
 11
194.972633109
 21
115.0023558565
 31
0.0
  0
LINE
  5
48B
330
1F
100
AcDbEntity
  8
0
  6
Continuous
 62
     7
370
    15
100
AcDbLine
 10
197.9726391887
 20
110.0023568996
 30
0.0
 11
197.9726391887
 21
115.0023558565
 31
0.0
  0
LINE
  5
48C
330
1F
100
AcDbEntity
  8
0
  6
Continuous
 62
     7
370
    15
100
AcDbLine
 10
194.972633109
 20
110.0023568996
 30
0.0
 11
197.9726391887
 21
110.0023568996
 31
0.0
  0
LINE
  5
48D
330
1F
100
AcDbEntity
  8
0
  6
Continuous
 62
     7
370
    15
100
AcDbLine
 10
194.972633109
 20
105.0023570113
 30
0.0
 11
194.972633109
 21
110.0023568996
 31
0.0
  0
LINE
  5
48E
330
1F
100
AcDbEntity
  8
0
  6
Continuous
 62
     7
370
    15
100
AcDbLine
 10
197.9726391887
 20
105.0023570113
 30
0.0
 11
194.972633109
 21
105.0023570113
 31
0.0
  0
LINE
  5
48F
330
1F
100
AcDbEntity
  8
0
  6
Continuous
 62
     7
370
    15
100
AcDbLine
 10
197.9726391887
 20
100.0023566574
 30
0.0
 11
197.9726391887
 21
105.0023570113
 31
0.0
  0
LINE
  5
490
330
1F
100
AcDbEntity
  8
0
  6
Continuous
 62
     7
370
    15
100
AcDbLine
 10
194.972633109
 20
100.0023566574
 30
0.0
 11
197.9726391887
 21
100.0023566574
 31
0.0
  0
LINE
  5
491
330
1F
100
AcDbEntity
  8
0
  6
Continuous
 62
     7
370
    15
100
AcDbLine
 10
194.972633109
 20
95.0023565363
 30
0.0
 11
194.972633109
 21
100.0023566574
 31
0.0
  0
LINE
  5
492
330
1F
100
AcDbEntity
  8
0
  6
Continuous
 62
     7
370
    15
100
AcDbLine
 10
194.972633109
 20
95.0023565363
 30
0.0
 11
197.9726391887
 21
95.0023565363
 31
0.0
  0
LINE
  5
493
330
1F
100
AcDbEntity
  8
0
  6
Continuous
 62
     7
370
    15
100
AcDbLine
 10
197.9726391887
 20
92.0023567431
 30
0.0
 11
197.9726391887
 21
95.0023565363
 31
0.0
  0
LINE
  5
494
330
1F
100
AcDbEntity
  8
0
  6
Continuous
 62
     7
370
    15
100
AcDbLine
 10
177.972643361
 20
92.0023567431
 30
0.0
 11
197.9726391887
 21
92.0023567431
 31
0.0
  0
LINE
  5
495
330
1F
100
AcDbEntity
  8
0
  6
Continuous
 62
     7
370
    15
100
AcDbLine
 10
177.972643361
 20
95.0023565363
 30
0.0
 11
177.972643361
 21
92.0023567431
 31
0.0
  0
LINE
  5
496
330
1F
100
AcDbEntity
  8
0
  6
Continuous
 62
     7
370
    15
100
AcDbLine
 10
177.972643361
 20
95.0023565363
 30
0.0
 11
47.4726396655
 21
95.0023565363
 31
0.0
  0
LINE
  5
497
330
1F
100
AcDbEntity
  8
0
  6
Continuous
 62
     7
370
    15
100
AcDbLine
 10
689.2016458678
 20
582.3679248636
 30
0.0
 11
689.2016458678
 21
567.3679251989
 31
0.0
  0
LINE
  5
498
330
1F
100
AcDbEntity
  8
0
  6
Continuous
 62
     7
370
    15
100
AcDbLine
 10
585.7016447353
 20
597.3679245283
 30
0.0
 11
555.20164253
 21
597.3679245283
 31
0.0
  0
LINE
  5
499
330
1F
100
AcDbEntity
  8
0
  6
Continuous
 62
     7
370
    15
100
AcDbLine
 10
585.7016447353
 20
582.3679248636
 30
0.0
 11
585.7016447353
 21
597.3679245283
 31
0.0
  0
LINE
  5
49A
330
1F
100
AcDbEntity
  8
0
  6
Continuous
 62
     7
370
    15
100
AcDbLine
 10
588.7016433644
 20
582.3679248636
 30
0.0
 11
585.7016447353
 21
582.3679248636
 31
0.0
  0
LINE
  5
49B
330
1F
100
AcDbEntity
  8
0
  6
Continuous
 62
     7
370
    15
100
AcDbLine
 10
588.7016433644
 20
597.3679245283
 30
0.0
 11
588.7016433644
 21
582.3679248636
 31
0.0
  0
LINE
  5
49C
330
1F
100
AcDbEntity
  8
0
  6
Continuous
 62
     7
370
    15
100
AcDbLine
 10
619.2016455698
 20
597.3679245283
 30
0.0
 11
588.7016433644
 21
597.3679245283
 31
0.0
  0
LINE
  5
49D
330
1F
100
AcDbEntity
  8
0
  6
Continuous
 62
     7
370
    15
100
AcDbLine
 10
619.2016455698
 20
582.3679248636
 30
0.0
 11
619.2016455698
 21
597.3679245283
 31
0.0
  0
LINE
  5
49E
330
1F
100
AcDbEntity
  8
0
  6
Continuous
 62
     7
370
    15
100
AcDbLine
 10
622.2016441989
 20
582.3679248636
 30
0.0
 11
619.2016455698
 21
582.3679248636
 31
0.0
  0
LINE
  5
49F
330
1F
100
AcDbEntity
  8
0
  6
Continuous
 62
     7
370
    15
100
AcDbLine
 10
622.2016441989
 20
597.3679245283
 30
0.0
 11
622.2016441989
 21
582.3679248636
 31
0.0
  0
LINE
  5
4A0
330
1F
100
AcDbEntity
  8
0
  6
Continuous
 62
     7
370
    15
100
AcDbLine
 10
652.7016389537
 20
597.3679245283
 30
0.0
 11
622.2016441989
 21
597.3679245283
 31
0.0
  0
LINE
  5
4A1
330
1F
100
AcDbEntity
  8
0
  6
Continuous
 62
     7
370
    15
100
AcDbLine
 10
652.7016389537
 20
582.3679248636
 30
0.0
 11
652.7016389537
 21
597.3679245283
 31
0.0
  0
LINE
  5
4A2
330
1F
100
AcDbEntity
  8
0
  6
Continuous
 62
     7
370
    15
100
AcDbLine
 10
655.7016450333
 20
582.3679248636
 30
0.0
 11
652.7016389537
 21
582.3679248636
 31
0.0
  0
LINE
  5
4A3
330
1F
100
AcDbEntity
  8
0
  6
Continuous
 62
     7
370
    15
100
AcDbLine
 10
655.7016450333
 20
597.3679245283
 30
0.0
 11
655.7016450333
 21
582.3679248636
 31
0.0
  0
LINE
  5
4A4
330
1F
100
AcDbEntity
  8
0
  6
Continuous
 62
     7
370
    15
100
AcDbLine
 10
686.2016397881
 20
597.3679245283
 30
0.0
 11
655.7016450333
 21
597.3679245283
 31
0.0
  0
LINE
  5
4A5
330
1F
100
AcDbEntity
  8
0
  6
Continuous
 62
     7
370
    15
100
AcDbLine
 10
686.2016397881
 20
582.3679248636
 30
0.0
 11
686.2016397881
 21
597.3679245283
 31
0.0
  0
LINE
  5
4A6
330
1F
100
AcDbEntity
  8
0
  6
Continuous
 62
     7
370
    15
100
AcDbLine
 10
689.2016458678
 20
582.3679248636
 30
0.0
 11
686.2016397881
 21
582.3679248636
 31
0.0
  0
LINE
  5
4A7
330
1F
100
AcDbEntity
  8
0
  6
Continuous
 62
     7
370
    15
100
AcDbLine
 10
625.8916410971
 20
567.3679251989
 30
0.0
 11
689.2016458678
 21
567.3679251989
 31
0.0
  0
LINE
  5
4A8
330
1F
100
AcDbEntity
  8
0
  6
Continuous
 62
     7
370
    15
100
AcDbLine
 10
625.8916410971
 20
564.3679247071
 30
0.0
 11
625.8916410971
 21
567.3679251989
 31
0.0
  0
LINE
  5
4A9
330
1F
100
AcDbEntity
  8
0
  6
Continuous
 62
     7
370
    15
100
AcDbLine
 10
615.8916431832
 20
564.3679247071
 30
0.0
 11
625.8916410971
 21
564.3679247071
 31
0.0
  0
LINE
  5
4AA
330
1F
100
AcDbEntity
  8
0
  6
Continuous
 62
     7
370
    15
100
AcDbLine
 10
615.8916431832
 20
567.3679251989
 30
0.0
 11
615.8916431832
 21
564.3679247071
 31
0.0
  0
LINE
  5
4AB
330
1F
100
AcDbEntity
  8
0
  6
Continuous
 62
     7
370
    15
100
AcDbLine
 10
527.2016416657
 20
567.3679251989
 30
0.0
 11
615.8916431832
 21
567.3679251989
 31
0.0
  0
LINE
  5
4AC
330
1F
100
AcDbEntity
  8
0
  6
Continuous
 62
     7
370
    15
100
AcDbLine
 10
527.2016416657
 20
569.367923664
 30
0.0
 11
527.2016416657
 21
567.3679251989
 31
0.0
  0
LINE
  5
4AD
330
1F
100
AcDbEntity
  8
0
  6
Continuous
 62
     7
370
    15
100
AcDbLine
 10
521.7016421611
 20
569.367923664
 30
0.0
 11
527.2016416657
 21
569.367923664
 31
0.0
  0
LINE
  5
4AE
330
1F
100
AcDbEntity
  8
0
  6
Continuous
 62
     7
370
    15
100
AcDbLine
 10
521.7016421611
 20
597.3679245283
 30
0.0
 11
521.7016421611
 21
569.367923664
 31
0.0
  0
LINE
  5
4AF
330
1F
100
AcDbEntity
  8
0
  6
Continuous
 62
     7
370
    15
100
AcDbLine
 10
552.2016439009
 20
597.3679245283
 30
0.0
 11
521.7016421611
 21
597.3679245283
 31
0.0
  0
LINE
  5
4B0
330
1F
100
AcDbEntity
  8
0
  6
Continuous
 62
     7
370
    15
100
AcDbLine
 10
552.2016439009
 20
582.3679248636
 30
0.0
 11
552.2016439009
 21
597.3679245283
 31
0.0
  0
LINE
  5
4B1
330
1F
100
AcDbEntity
  8
0
  6
Continuous
 62
     7
370
    15
100
AcDbLine
 10
555.20164253
 20
582.3679248636
 30
0.0
 11
552.2016439009
 21
582.3679248636
 31
0.0
  0
LINE
  5
4B2
330
1F
100
AcDbEntity
  8
0
  6
Continuous
 62
     7
370
    15
100
AcDbLine
 10
555.20164253
 20
597.3679245283
 30
0.0
 11
555.20164253
 21
582.3679248636
 31
0.0
  0
LINE
  5
4B3
330
1F
100
AcDbEntity
  8
0
  6
Continuous
 62
     7
370
    15
100
AcDbLine
 10
1.6136793197
 20
126.4551860032
 30
0.0
 11
1.6136793197
 21
131.4551849601
 31
0.0
  0
LINE
  5
4B4
330
1F
100
AcDbEntity
  8
0
  6
Continuous
 62
     7
370
    15
100
AcDbLine
 10
1.6136793197
 20
136.4551857797
 30
0.0
 11
1.6136793197
 21
141.4551856679
 31
0.0
  0
LINE
  5
4B5
330
1F
100
AcDbEntity
  8
0
  6
Continuous
 62
     7
370
    15
100
AcDbLine
 10
1.6136793197
 20
146.4551855562
 30
0.0
 11
1.6136793197
 21
151.4551854444
 31
0.0
  0
LINE
  5
4B6
330
1F
100
AcDbEntity
  8
0
  6
Continuous
 62
     7
370
    15
100
AcDbLine
 10
219.1136805117
 20
163.4551855487
 30
0.0
 11
4.6136793457
 21
163.4551855487
 31
0.0
  0
LINE
  5
4B7
330
1F
100
AcDbEntity
  8
0
  6
Continuous
 62
     7
370
    15
100
AcDbLine
 10
222.1136865914
 20
151.4551854444
 30
0.0
 11
222.1136865914
 21
146.4551855562
 31
0.0
  0
LINE
  5
4B8
330
1F
100
AcDbEntity
  8
0
  6
Continuous
 62
     7
370
    15
100
AcDbLine
 10
222.1136865914
 20
141.4551856679
 30
0.0
 11
222.1136865914
 21
136.4551857797
 31
0.0
  0
LINE
  5
4B9
330
1F
100
AcDbEntity
  8
0
  6
Continuous
 62
     7
370
    15
100
AcDbLine
 10
222.1136865914
 20
131.4551849601
 30
0.0
 11
222.1136865914
 21
126.4551860032
 31
0.0
  0
LINE
  5
4BA
330
1F
100
AcDbEntity
  8
0
  6
Continuous
 62
     7
370
    15
100
AcDbLine
 10
185.8136830628
 20
151.5551852745
 30
0.0
 11
185.8136830628
 21
138.3551844147
 31
0.0
  0
LINE
  5
4BB
330
1F
100
AcDbEntity
  8
0
  6
Continuous
 62
     7
370
    15
100
AcDbLine
 10
185.8136830628
 20
138.3551844147
 30
0.0
 11
205.4136721194
 21
138.3551844147
 31
0.0
  0
LINE
  5
4BC
330
1F
100
AcDbEntity
  8
0
  6
Continuous
 62
     7
370
    15
100
AcDbLine
 10
205.4136721194
 20
138.3551844147
 30
0.0
 11
205.4136721194
 21
151.5551852745
 31
0.0
  0
LINE
  5
4BD
330
1F
100
AcDbEntity
  8
0
  6
Continuous
 62
     7
370
    15
100
AcDbLine
 10
205.4136721194
 20
151.5551852745
 30
0.0
 11
185.8136830628
 21
151.5551852745
 31
0.0
  0
LINE
  5
4BE
330
1F
100
AcDbEntity
  8
0
  6
Continuous
 62
     7
370
    15
100
AcDbLine
 10
102.113681823
 20
156.9551853564
 30
0.0
 11
105.1136804521
 21
156.9551853564
 31
0.0
  0
LINE
  5
4BF
330
1F
100
AcDbEntity
  8
0
  6
Continuous
 62
     7
370
    15
100
AcDbLine
 10
4.6136793457
 20
131.4551849601
 30
0.0
 11
1.6136793197
 21
131.4551849601
 31
0.0
  0
LINE
  5
4C0
330
1F
100
AcDbEntity
  8
0
  6
Continuous
 62
     7
370
    15
100
AcDbLine
 10
4.6136793457
 20
136.4551857797
 30
0.0
 11
4.6136793457
 21
131.4551849601
 31
0.0
  0
LINE
  5
4C1
330
1F
100
AcDbEntity
  8
0
  6
Continuous
 62
     7
370
    15
100
AcDbLine
 10
1.6136793197
 20
136.4551857797
 30
0.0
 11
4.6136793457
 21
136.4551857797
 31
0.0
  0
LINE
  5
4C2
330
1F
100
AcDbEntity
  8
0
  6
Continuous
 62
     7
370
    15
100
AcDbLine
 10
4.6136793457
 20
141.4551856679
 30
0.0
 11
1.6136793197
 21
141.4551856679
 31
0.0
  0
LINE
  5
4C3
330
1F
100
AcDbEntity
  8
0
  6
Continuous
 62
     7
370
    15
100
AcDbLine
 10
4.6136793457
 20
146.4551855562
 30
0.0
 11
4.6136793457
 21
141.4551856679
 31
0.0
  0
LINE
  5
4C4
330
1F
100
AcDbEntity
  8
0
  6
Continuous
 62
     7
370
    15
100
AcDbLine
 10
1.6136793197
 20
146.4551855562
 30
0.0
 11
4.6136793457
 21
146.4551855562
 31
0.0
  0
LINE
  5
4C5
330
1F
100
AcDbEntity
  8
0
  6
Continuous
 62
     7
370
    15
100
AcDbLine
 10
4.6136793457
 20
151.4551854444
 30
0.0
 11
1.6136793197
 21
151.4551854444
 31
0.0
  0
LINE
  5
4C6
330
1F
100
AcDbEntity
  8
0
  6
Continuous
 62
     7
370
    15
100
AcDbLine
 10
4.6136793457
 20
163.4551855487
 30
0.0
 11
4.6136793457
 21
151.4551854444
 31
0.0
  0
LINE
  5
4C7
330
1F
100
AcDbEntity
  8
0
  6
Continuous
 62
     7
370
    15
100
AcDbLine
 10
102.113681823
 20
141.4551856679
 30
0.0
 11
102.113681823
 21
156.9551853564
 31
0.0
  0
LINE
  5
4C8
330
1F
100
AcDbEntity
  8
0
  6
Continuous
 62
     7
370
    15
100
AcDbLine
 10
105.1136804521
 20
141.4551856679
 30
0.0
 11
102.113681823
 21
141.4551856679
 31
0.0
  0
LINE
  5
4C9
330
1F
100
AcDbEntity
  8
0
  6
Continuous
 62
     7
370
    15
100
AcDbLine
 10
105.1136804521
 20
156.9551853564
 30
0.0
 11
105.1136804521
 21
141.4551856679
 31
0.0
  0
LINE
  5
4CA
330
1F
100
AcDbEntity
  8
0
  6
Continuous
 62
     7
370
    15
100
AcDbLine
 10
219.1136805117
 20
151.4551854444
 30
0.0
 11
219.1136805117
 21
163.4551855487
 31
0.0
  0
LINE
  5
4CB
330
1F
100
AcDbEntity
  8
0
  6
Continuous
 62
     7
370
    15
100
AcDbLine
 10
222.1136865914
 20
151.4551854444
 30
0.0
 11
219.1136805117
 21
151.4551854444
 31
0.0
  0
LINE
  5
4CC
330
1F
100
AcDbEntity
  8
0
  6
Continuous
 62
     7
370
    15
100
AcDbLine
 10
219.1136805117
 20
146.4551855562
 30
0.0
 11
222.1136865914
 21
146.4551855562
 31
0.0
  0
LINE
  5
4CD
330
1F
100
AcDbEntity
  8
0
  6
Continuous
 62
     7
370
    15
100
AcDbLine
 10
219.1136805117
 20
141.4551856679
 30
0.0
 11
219.1136805117
 21
146.4551855562
 31
0.0
  0
LINE
  5
4CE
330
1F
100
AcDbEntity
  8
0
  6
Continuous
 62
     7
370
    15
100
AcDbLine
 10
222.1136865914
 20
141.4551856679
 30
0.0
 11
219.1136805117
 21
141.4551856679
 31
0.0
  0
LINE
  5
4CF
330
1F
100
AcDbEntity
  8
0
  6
Continuous
 62
     7
370
    15
100
AcDbLine
 10
219.1136805117
 20
136.4551857797
 30
0.0
 11
222.1136865914
 21
136.4551857797
 31
0.0
  0
LINE
  5
4D0
330
1F
100
AcDbEntity
  8
0
  6
Continuous
 62
     7
370
    15
100
AcDbLine
 10
219.1136805117
 20
131.4551849601
 30
0.0
 11
219.1136805117
 21
136.4551857797
 31
0.0
  0
LINE
  5
4D1
330
1F
100
AcDbEntity
  8
0
  6
Continuous
 62
     7
370
    15
100
AcDbLine
 10
222.1136865914
 20
131.4551849601
 30
0.0
 11
219.1136805117
 21
131.4551849601
 31
0.0
  0
LINE
  5
4D2
330
1F
100
AcDbEntity
  8
0
  6
Continuous
 62
     7
370
    15
100
AcDbLine
 10
219.1136805117
 20
126.4551860032
 30
0.0
 11
222.1136865914
 21
126.4551860032
 31
0.0
  0
LINE
  5
4D3
330
1F
100
AcDbEntity
  8
0
  6
Continuous
 62
     7
370
    15
100
AcDbLine
 10
219.1136805117
 20
123.4551855114
 30
0.0
 11
219.1136805117
 21
126.4551860032
 31
0.0
  0
LINE
  5
4D4
330
1F
100
AcDbEntity
  8
0
  6
Continuous
 62
     7
370
    15
100
AcDbLine
 10
202.1136758626
 20
123.4551855114
 30
0.0
 11
219.1136805117
 21
123.4551855114
 31
0.0
  0
LINE
  5
4D5
330
1F
100
AcDbEntity
  8
0
  6
Continuous
 62
     7
370
    15
100
AcDbLine
 10
202.1136758626
 20
126.4551860032
 30
0.0
 11
202.1136758626
 21
123.4551855114
 31
0.0
  0
LINE
  5
4D6
330
1F
100
AcDbEntity
  8
0
  6
Continuous
 62
     7
370
    15
100
AcDbLine
 10
21.6136788726
 20
126.4551860032
 30
0.0
 11
202.1136758626
 21
126.4551860032
 31
0.0
  0
LINE
  5
4D7
330
1F
100
AcDbEntity
  8
0
  6
Continuous
 62
     7
370
    15
100
AcDbLine
 10
21.6136788726
 20
123.4551855114
 30
0.0
 11
21.6136788726
 21
126.4551860032
 31
0.0
  0
LINE
  5
4D8
330
1F
100
AcDbEntity
  8
0
  6
Continuous
 62
     7
370
    15
100
AcDbLine
 10
4.6136793457
 20
123.4551855114
 30
0.0
 11
21.6136788726
 21
123.4551855114
 31
0.0
  0
LINE
  5
4D9
330
1F
100
AcDbEntity
  8
0
  6
Continuous
 62
     7
370
    15
100
AcDbLine
 10
4.6136793457
 20
126.4551860032
 30
0.0
 11
4.6136793457
 21
123.4551855114
 31
0.0
  0
LINE
  5
4DA
330
1F
100
AcDbEntity
  8
0
  6
Continuous
 62
     7
370
    15
100
AcDbLine
 10
1.6136793197
 20
126.4551860032
 30
0.0
 11
4.6136793457
 21
126.4551860032
 31
0.0
  0
LINE
  5
4DB
330
1F
100
AcDbEntity
  8
0
  6
Continuous
 62
     7
370
    15
100
AcDbLine
 10
223.9363211266
 20
168.8556576269
 30
0.0
 11
223.9363211266
 21
173.8556565838
 31
0.0
  0
LINE
  5
4DC
330
1F
100
AcDbEntity
  8
0
  6
Continuous
 62
     7
370
    15
100
AcDbLine
 10
223.9363211266
 20
178.8556574034
 30
0.0
 11
223.9363211266
 21
183.8556572917
 31
0.0
  0
LINE
  5
4DD
330
1F
100
AcDbEntity
  8
0
  6
Continuous
 62
     7
370
    15
100
AcDbLine
 10
223.9363211266
 20
188.8556571799
 30
0.0
 11
223.9363211266
 21
193.8556570681
 31
0.0
  0
LINE
  5
4DE
330
1F
100
AcDbEntity
  8
0
  6
Continuous
 62
     7
370
    15
100
AcDbLine
 10
441.4363223187
 20
205.8556571724
 30
0.0
 11
226.9363211526
 21
205.8556571724
 31
0.0
  0
LINE
  5
4DF
330
1F
100
AcDbEntity
  8
0
  6
Continuous
 62
     7
370
    15
100
AcDbLine
 10
444.4363283983
 20
193.8556570681
 30
0.0
 11
444.4363283983
 21
188.8556571799
 31
0.0
  0
LINE
  5
4E0
330
1F
100
AcDbEntity
  8
0
  6
Continuous
 62
     7
370
    15
100
AcDbLine
 10
444.4363283983
 20
183.8556572917
 30
0.0
 11
444.4363283983
 21
178.8556574034
 31
0.0
  0
LINE
  5
4E1
330
1F
100
AcDbEntity
  8
0
  6
Continuous
 62
     7
370
    15
100
AcDbLine
 10
444.4363283983
 20
173.8556565838
 30
0.0
 11
444.4363283983
 21
168.8556576269
 31
0.0
  0
LINE
  5
4E2
330
1F
100
AcDbEntity
  8
0
  6
Continuous
 62
     7
370
    15
100
AcDbLine
 10
401.936324226
 20
192.3556568223
 30
0.0
 11
401.936324226
 21
182.3556570458
 31
0.0
  0
LINE
  5
4E3
330
1F
100
AcDbEntity
  8
0
  6
Continuous
 62
     7
370
    15
100
AcDbLine
 10
401.936324226
 20
182.3556570458
 30
0.0
 11
416.9363248221
 21
182.3556570458
 31
0.0
  0
LINE
  5
4E4
330
1F
100
AcDbEntity
  8
0
  6
Continuous
 62
     7
370
    15
100
AcDbLine
 10
416.9363248221
 20
182.3556570458
 30
0.0
 11
416.9363248221
 21
192.3556568223
 31
0.0
  0
LINE
  5
4E5
330
1F
100
AcDbEntity
  8
0
  6
Continuous
 62
     7
370
    15
100
AcDbLine
 10
416.9363248221
 20
192.3556568223
 30
0.0
 11
401.936324226
 21
192.3556568223
 31
0.0
  0
CIRCLE
  5
4E6
330
1F
100
AcDbEntity
  8
0
  6
Continuous
 62
     7
370
    15
100
AcDbCircle
 10
429.4363211266
 20
187.3556569564
 30
0.0
 40
5.0
  0
LINE
  5
4E7
330
1F
100
AcDbEntity
  8
0
  6
Continuous
 62
     7
370
    15
100
AcDbLine
 10
324.43632363
 20
199.3556569801
 30
0.0
 11
327.4363222591
 21
199.3556569801
 31
0.0
  0
LINE
  5
4E8
330
1F
100
AcDbEntity
  8
0
  6
Continuous
 62
     7
370
    15
100
AcDbLine
 10
226.9363211526
 20
173.8556565838
 30
0.0
 11
223.9363211266
 21
173.8556565838
 31
0.0
  0
LINE
  5
4E9
330
1F
100
AcDbEntity
  8
0
  6
Continuous
 62
     7
370
    15
100
AcDbLine
 10
226.9363211526
 20
178.8556574034
 30
0.0
 11
226.9363211526
 21
173.8556565838
 31
0.0
  0
LINE
  5
4EA
330
1F
100
AcDbEntity
  8
0
  6
Continuous
 62
     7
370
    15
100
AcDbLine
 10
223.9363211266
 20
178.8556574034
 30
0.0
 11
226.9363211526
 21
178.8556574034
 31
0.0
  0
LINE
  5
4EB
330
1F
100
AcDbEntity
  8
0
  6
Continuous
 62
     7
370
    15
100
AcDbLine
 10
226.9363211526
 20
183.8556572917
 30
0.0
 11
223.9363211266
 21
183.8556572917
 31
0.0
  0
LINE
  5
4EC
330
1F
100
AcDbEntity
  8
0
  6
Continuous
 62
     7
370
    15
100
AcDbLine
 10
226.9363211526
 20
188.8556571799
 30
0.0
 11
226.9363211526
 21
183.8556572917
 31
0.0
  0
LINE
  5
4ED
330
1F
100
AcDbEntity
  8
0
  6
Continuous
 62
     7
370
    15
100
AcDbLine
 10
223.9363211266
 20
188.8556571799
 30
0.0
 11
226.9363211526
 21
188.8556571799
 31
0.0
  0
LINE
  5
4EE
330
1F
100
AcDbEntity
  8
0
  6
Continuous
 62
     7
370
    15
100
AcDbLine
 10
226.9363211526
 20
193.8556570681
 30
0.0
 11
223.9363211266
 21
193.8556570681
 31
0.0
  0
LINE
  5
4EF
330
1F
100
AcDbEntity
  8
0
  6
Continuous
 62
     7
370
    15
100
AcDbLine
 10
226.9363211526
 20
205.8556571724
 30
0.0
 11
226.9363211526
 21
193.8556570681
 31
0.0
  0
LINE
  5
4F0
330
1F
100
AcDbEntity
  8
0
  6
Continuous
 62
     7
370
    15
100
AcDbLine
 10
324.43632363
 20
183.8556572917
 30
0.0
 11
324.43632363
 21
199.3556569801
 31
0.0
  0
LINE
  5
4F1
330
1F
100
AcDbEntity
  8
0
  6
Continuous
 62
     7
370
    15
100
AcDbLine
 10
327.4363222591
 20
183.8556572917
 30
0.0
 11
324.43632363
 21
183.8556572917
 31
0.0
  0
LINE
  5
4F2
330
1F
100
AcDbEntity
  8
0
  6
Continuous
 62
     7
370
    15
100
AcDbLine
 10
327.4363222591
 20
199.3556569801
 30
0.0
 11
327.4363222591
 21
183.8556572917
 31
0.0
  0
LINE
  5
4F3
330
1F
100
AcDbEntity
  8
0
  6
Continuous
 62
     7
370
    15
100
AcDbLine
 10
441.4363223187
 20
193.8556570681
 30
0.0
 11
441.4363223187
 21
205.8556571724
 31
0.0
  0
LINE
  5
4F4
330
1F
100
AcDbEntity
  8
0
  6
Continuous
 62
     7
370
    15
100
AcDbLine
 10
444.4363283983
 20
193.8556570681
 30
0.0
 11
441.4363223187
 21
193.8556570681
 31
0.0
  0
LINE
  5
4F5
330
1F
100
AcDbEntity
  8
0
  6
Continuous
 62
     7
370
    15
100
AcDbLine
 10
441.4363223187
 20
188.8556571799
 30
0.0
 11
444.4363283983
 21
188.8556571799
 31
0.0
  0
LINE
  5
4F6
330
1F
100
AcDbEntity
  8
0
  6
Continuous
 62
     7
370
    15
100
AcDbLine
 10
441.4363223187
 20
183.8556572917
 30
0.0
 11
441.4363223187
 21
188.8556571799
 31
0.0
  0
LINE
  5
4F7
330
1F
100
AcDbEntity
  8
0
  6
Continuous
 62
     7
370
    15
100
AcDbLine
 10
444.4363283983
 20
183.8556572917
 30
0.0
 11
441.4363223187
 21
183.8556572917
 31
0.0
  0
LINE
  5
4F8
330
1F
100
AcDbEntity
  8
0
  6
Continuous
 62
     7
370
    15
100
AcDbLine
 10
441.4363223187
 20
178.8556574034
 30
0.0
 11
444.4363283983
 21
178.8556574034
 31
0.0
  0
LINE
  5
4F9
330
1F
100
AcDbEntity
  8
0
  6
Continuous
 62
     7
370
    15
100
AcDbLine
 10
441.4363223187
 20
173.8556565838
 30
0.0
 11
441.4363223187
 21
178.8556574034
 31
0.0
  0
LINE
  5
4FA
330
1F
100
AcDbEntity
  8
0
  6
Continuous
 62
     7
370
    15
100
AcDbLine
 10
444.4363283983
 20
173.8556565838
 30
0.0
 11
441.4363223187
 21
173.8556565838
 31
0.0
  0
LINE
  5
4FB
330
1F
100
AcDbEntity
  8
0
  6
Continuous
 62
     7
370
    15
100
AcDbLine
 10
441.4363223187
 20
168.8556576269
 30
0.0
 11
444.4363283983
 21
168.8556576269
 31
0.0
  0
LINE
  5
4FC
330
1F
100
AcDbEntity
  8
0
  6
Continuous
 62
     7
370
    15
100
AcDbLine
 10
441.4363223187
 20
165.8556571352
 30
0.0
 11
441.4363223187
 21
168.8556576269
 31
0.0
  0
LINE
  5
4FD
330
1F
100
AcDbEntity
  8
0
  6
Continuous
 62
     7
370
    15
100
AcDbLine
 10
424.4363176695
 20
165.8556571352
 30
0.0
 11
441.4363223187
 21
165.8556571352
 31
0.0
  0
LINE
  5
4FE
330
1F
100
AcDbEntity
  8
0
  6
Continuous
 62
     7
370
    15
100
AcDbLine
 10
424.4363176695
 20
168.8556576269
 30
0.0
 11
424.4363176695
 21
165.8556571352
 31
0.0
  0
LINE
  5
4FF
330
1F
100
AcDbEntity
  8
0
  6
Continuous
 62
     7
370
    15
100
AcDbLine
 10
243.9363206795
 20
168.8556576269
 30
0.0
 11
424.4363176695
 21
168.8556576269
 31
0.0
  0
LINE
  5
500
330
1F
100
AcDbEntity
  8
0
  6
Continuous
 62
     7
370
    15
100
AcDbLine
 10
243.9363206795
 20
165.8556571352
 30
0.0
 11
243.9363206795
 21
168.8556576269
 31
0.0
  0
LINE
  5
501
330
1F
100
AcDbEntity
  8
0
  6
Continuous
 62
     7
370
    15
100
AcDbLine
 10
226.9363211526
 20
165.8556571352
 30
0.0
 11
243.9363206795
 21
165.8556571352
 31
0.0
  0
LINE
  5
502
330
1F
100
AcDbEntity
  8
0
  6
Continuous
 62
     7
370
    15
100
AcDbLine
 10
226.9363211526
 20
168.8556576269
 30
0.0
 11
226.9363211526
 21
165.8556571352
 31
0.0
  0
LINE
  5
503
330
1F
100
AcDbEntity
  8
0
  6
Continuous
 62
     7
370
    15
100
AcDbLine
 10
223.9363211266
 20
168.8556576269
 30
0.0
 11
226.9363211526
 21
168.8556576269
 31
0.0
  0
LINE
  5
504
330
1F
100
AcDbEntity
  8
0
  6
Continuous
 62
     7
370
    15
100
AcDbLine
 10
1.6136793197
 20
169.2476388334
 30
0.0
 11
1.6136793197
 21
174.2476377903
 31
0.0
  0
LINE
  5
505
330
1F
100
AcDbEntity
  8
0
  6
Continuous
 62
     7
370
    15
100
AcDbLine
 10
1.6136793197
 20
179.2476386099
 30
0.0
 11
1.6136793197
 21
184.2476384981
 31
0.0
  0
LINE
  5
506
330
1F
100
AcDbEntity
  8
0
  6
Continuous
 62
     7
370
    15
100
AcDbLine
 10
1.6136793197
 20
189.2476383863
 30
0.0
 11
1.6136793197
 21
194.2476382746
 31
0.0
  0
LINE
  5
507
330
1F
100
AcDbEntity
  8
0
  6
Continuous
 62
     7
370
    15
100
AcDbLine
 10
219.1136805117
 20
206.2476383789
 30
0.0
 11
4.6136793457
 21
206.2476383789
 31
0.0
  0
LINE
  5
508
330
1F
100
AcDbEntity
  8
0
  6
Continuous
 62
     7
370
    15
100
AcDbLine
 10
222.1136865914
 20
194.2476382746
 30
0.0
 11
222.1136865914
 21
189.2476383863
 31
0.0
  0
LINE
  5
509
330
1F
100
AcDbEntity
  8
0
  6
Continuous
 62
     7
370
    15
100
AcDbLine
 10
222.1136865914
 20
184.2476384981
 30
0.0
 11
222.1136865914
 21
179.2476386099
 31
0.0
  0
LINE
  5
50A
330
1F
100
AcDbEntity
  8
0
  6
Continuous
 62
     7
370
    15
100
AcDbLine
 10
222.1136865914
 20
174.2476377903
 30
0.0
 11
222.1136865914
 21
169.2476388334
 31
0.0
  0
LINE
  5
50B
330
1F
100
AcDbEntity
  8
0
  6
Continuous
 62
     7
370
    15
100
AcDbLine
 10
185.8136830628
 20
194.3476381047
 30
0.0
 11
185.8136830628
 21
181.1476372449
 31
0.0
  0
LINE
  5
50C
330
1F
100
AcDbEntity
  8
0
  6
Continuous
 62
     7
370
    15
100
AcDbLine
 10
185.8136830628
 20
181.1476372449
 30
0.0
 11
205.4136721194
 21
181.1476372449
 31
0.0
  0
LINE
  5
50D
330
1F
100
AcDbEntity
  8
0
  6
Continuous
 62
     7
370
    15
100
AcDbLine
 10
205.4136721194
 20
181.1476372449
 30
0.0
 11
205.4136721194
 21
194.3476381047
 31
0.0
  0
LINE
  5
50E
330
1F
100
AcDbEntity
  8
0
  6
Continuous
 62
     7
370
    15
100
AcDbLine
 10
205.4136721194
 20
194.3476381047
 30
0.0
 11
185.8136830628
 21
194.3476381047
 31
0.0
  0
LINE
  5
50F
330
1F
100
AcDbEntity
  8
0
  6
Continuous
 62
     7
370
    15
100
AcDbLine
 10
102.113681823
 20
199.7476381866
 30
0.0
 11
105.1136804521
 21
199.7476381866
 31
0.0
  0
LINE
  5
510
330
1F
100
AcDbEntity
  8
0
  6
Continuous
 62
     7
370
    15
100
AcDbLine
 10
4.6136793457
 20
174.2476377903
 30
0.0
 11
1.6136793197
 21
174.2476377903
 31
0.0
  0
LINE
  5
511
330
1F
100
AcDbEntity
  8
0
  6
Continuous
 62
     7
370
    15
100
AcDbLine
 10
4.6136793457
 20
179.2476386099
 30
0.0
 11
4.6136793457
 21
174.2476377903
 31
0.0
  0
LINE
  5
512
330
1F
100
AcDbEntity
  8
0
  6
Continuous
 62
     7
370
    15
100
AcDbLine
 10
1.6136793197
 20
179.2476386099
 30
0.0
 11
4.6136793457
 21
179.2476386099
 31
0.0
  0
LINE
  5
513
330
1F
100
AcDbEntity
  8
0
  6
Continuous
 62
     7
370
    15
100
AcDbLine
 10
4.6136793457
 20
184.2476384981
 30
0.0
 11
1.6136793197
 21
184.2476384981
 31
0.0
  0
LINE
  5
514
330
1F
100
AcDbEntity
  8
0
  6
Continuous
 62
     7
370
    15
100
AcDbLine
 10
4.6136793457
 20
189.2476383863
 30
0.0
 11
4.6136793457
 21
184.2476384981
 31
0.0
  0
LINE
  5
515
330
1F
100
AcDbEntity
  8
0
  6
Continuous
 62
     7
370
    15
100
AcDbLine
 10
1.6136793197
 20
189.2476383863
 30
0.0
 11
4.6136793457
 21
189.2476383863
 31
0.0
  0
LINE
  5
516
330
1F
100
AcDbEntity
  8
0
  6
Continuous
 62
     7
370
    15
100
AcDbLine
 10
4.6136793457
 20
194.2476382746
 30
0.0
 11
1.6136793197
 21
194.2476382746
 31
0.0
  0
LINE
  5
517
330
1F
100
AcDbEntity
  8
0
  6
Continuous
 62
     7
370
    15
100
AcDbLine
 10
4.6136793457
 20
206.2476383789
 30
0.0
 11
4.6136793457
 21
194.2476382746
 31
0.0
  0
LINE
  5
518
330
1F
100
AcDbEntity
  8
0
  6
Continuous
 62
     7
370
    15
100
AcDbLine
 10
102.113681823
 20
184.2476384981
 30
0.0
 11
102.113681823
 21
199.7476381866
 31
0.0
  0
LINE
  5
519
330
1F
100
AcDbEntity
  8
0
  6
Continuous
 62
     7
370
    15
100
AcDbLine
 10
105.1136804521
 20
184.2476384981
 30
0.0
 11
102.113681823
 21
184.2476384981
 31
0.0
  0
LINE
  5
51A
330
1F
100
AcDbEntity
  8
0
  6
Continuous
 62
     7
370
    15
100
AcDbLine
 10
105.1136804521
 20
199.7476381866
 30
0.0
 11
105.1136804521
 21
184.2476384981
 31
0.0
  0
LINE
  5
51B
330
1F
100
AcDbEntity
  8
0
  6
Continuous
 62
     7
370
    15
100
AcDbLine
 10
219.1136805117
 20
194.2476382746
 30
0.0
 11
219.1136805117
 21
206.2476383789
 31
0.0
  0
LINE
  5
51C
330
1F
100
AcDbEntity
  8
0
  6
Continuous
 62
     7
370
    15
100
AcDbLine
 10
222.1136865914
 20
194.2476382746
 30
0.0
 11
219.1136805117
 21
194.2476382746
 31
0.0
  0
LINE
  5
51D
330
1F
100
AcDbEntity
  8
0
  6
Continuous
 62
     7
370
    15
100
AcDbLine
 10
219.1136805117
 20
189.2476383863
 30
0.0
 11
222.1136865914
 21
189.2476383863
 31
0.0
  0
LINE
  5
51E
330
1F
100
AcDbEntity
  8
0
  6
Continuous
 62
     7
370
    15
100
AcDbLine
 10
219.1136805117
 20
184.2476384981
 30
0.0
 11
219.1136805117
 21
189.2476383863
 31
0.0
  0
LINE
  5
51F
330
1F
100
AcDbEntity
  8
0
  6
Continuous
 62
     7
370
    15
100
AcDbLine
 10
222.1136865914
 20
184.2476384981
 30
0.0
 11
219.1136805117
 21
184.2476384981
 31
0.0
  0
LINE
  5
520
330
1F
100
AcDbEntity
  8
0
  6
Continuous
 62
     7
370
    15
100
AcDbLine
 10
219.1136805117
 20
179.2476386099
 30
0.0
 11
222.1136865914
 21
179.2476386099
 31
0.0
  0
LINE
  5
521
330
1F
100
AcDbEntity
  8
0
  6
Continuous
 62
     7
370
    15
100
AcDbLine
 10
219.1136805117
 20
174.2476377903
 30
0.0
 11
219.1136805117
 21
179.2476386099
 31
0.0
  0
LINE
  5
522
330
1F
100
AcDbEntity
  8
0
  6
Continuous
 62
     7
370
    15
100
AcDbLine
 10
222.1136865914
 20
174.2476377903
 30
0.0
 11
219.1136805117
 21
174.2476377903
 31
0.0
  0
LINE
  5
523
330
1F
100
AcDbEntity
  8
0
  6
Continuous
 62
     7
370
    15
100
AcDbLine
 10
219.1136805117
 20
169.2476388334
 30
0.0
 11
222.1136865914
 21
169.2476388334
 31
0.0
  0
LINE
  5
524
330
1F
100
AcDbEntity
  8
0
  6
Continuous
 62
     7
370
    15
100
AcDbLine
 10
219.1136805117
 20
166.2476383416
 30
0.0
 11
219.1136805117
 21
169.2476388334
 31
0.0
  0
LINE
  5
525
330
1F
100
AcDbEntity
  8
0
  6
Continuous
 62
     7
370
    15
100
AcDbLine
 10
202.1136758626
 20
166.2476383416
 30
0.0
 11
219.1136805117
 21
166.2476383416
 31
0.0
  0
LINE
  5
526
330
1F
100
AcDbEntity
  8
0
  6
Continuous
 62
     7
370
    15
100
AcDbLine
 10
202.1136758626
 20
169.2476388334
 30
0.0
 11
202.1136758626
 21
166.2476383416
 31
0.0
  0
LINE
  5
527
330
1F
100
AcDbEntity
  8
0
  6
Continuous
 62
     7
370
    15
100
AcDbLine
 10
21.6136788726
 20
169.2476388334
 30
0.0
 11
202.1136758626
 21
169.2476388334
 31
0.0
  0
LINE
  5
528
330
1F
100
AcDbEntity
  8
0
  6
Continuous
 62
     7
370
    15
100
AcDbLine
 10
21.6136788726
 20
166.2476383416
 30
0.0
 11
21.6136788726
 21
169.2476388334
 31
0.0
  0
LINE
  5
529
330
1F
100
AcDbEntity
  8
0
  6
Continuous
 62
     7
370
    15
100
AcDbLine
 10
4.6136793457
 20
166.2476383416
 30
0.0
 11
21.6136788726
 21
166.2476383416
 31
0.0
  0
LINE
  5
52A
330
1F
100
AcDbEntity
  8
0
  6
Continuous
 62
     7
370
    15
100
AcDbLine
 10
4.6136793457
 20
169.2476388334
 30
0.0
 11
4.6136793457
 21
166.2476383416
 31
0.0
  0
LINE
  5
52B
330
1F
100
AcDbEntity
  8
0
  6
Continuous
 62
     7
370
    15
100
AcDbLine
 10
1.6136793197
 20
169.2476388334
 30
0.0
 11
4.6136793457
 21
169.2476388334
 31
0.0
  0
LINE
  5
52C
330
1F
100
AcDbEntity
  8
0
  6
Continuous
 62
     7
370
    15
100
AcDbLine
 10
2.5533013662
 20
53.0726402464
 30
0.0
 11
2.5533013662
 21
58.0726392033
 31
0.0
  0
LINE
  5
52D
330
1F
100
AcDbEntity
  8
0
  6
Continuous
 62
     7
370
    15
100
AcDbLine
 10
2.5533013662
 20
63.0726400229
 30
0.0
 11
2.5533013662
 21
68.0726399111
 31
0.0
  0
LINE
  5
52E
330
1F
100
AcDbEntity
  8
0
  6
Continuous
 62
     7
370
    15
100
AcDbLine
 10
2.5533013662
 20
73.0726397994
 30
0.0
 11
2.5533013662
 21
78.0726396876
 31
0.0
  0
LINE
  5
52F
330
1F
100
AcDbEntity
  8
0
  6
Continuous
 62
     7
370
    15
100
AcDbLine
 10
220.0533025583
 20
90.0726397919
 30
0.0
 11
5.5533013923
 21
90.0726397919
 31
0.0
  0
LINE
  5
530
330
1F
100
AcDbEntity
  8
0
  6
Continuous
 62
     7
370
    15
100
AcDbLine
 10
223.053308638
 20
78.0726396876
 30
0.0
 11
223.053308638
 21
73.0726397994
 31
0.0
  0
LINE
  5
531
330
1F
100
AcDbEntity
  8
0
  6
Continuous
 62
     7
370
    15
100
AcDbLine
 10
223.053308638
 20
68.0726399111
 30
0.0
 11
223.053308638
 21
63.0726400229
 31
0.0
  0
LINE
  5
532
330
1F
100
AcDbEntity
  8
0
  6
Continuous
 62
     7
370
    15
100
AcDbLine
 10
223.053308638
 20
58.0726392033
 30
0.0
 11
223.053308638
 21
53.0726402464
 31
0.0
  0
LINE
  5
533
330
1F
100
AcDbEntity
  8
0
  6
Continuous
 62
     7
370
    15
100
AcDbLine
 10
186.7533051094
 20
78.1726395177
 30
0.0
 11
186.7533051094
 21
64.9726386579
 31
0.0
  0
LINE
  5
534
330
1F
100
AcDbEntity
  8
0
  6
Continuous
 62
     7
370
    15
100
AcDbLine
 10
186.7533051094
 20
64.9726386579
 30
0.0
 11
206.353294166
 21
64.9726386579
 31
0.0
  0
LINE
  5
535
330
1F
100
AcDbEntity
  8
0
  6
Continuous
 62
     7
370
    15
100
AcDbLine
 10
206.353294166
 20
64.9726386579
 30
0.0
 11
206.353294166
 21
78.1726395177
 31
0.0
  0
LINE
  5
536
330
1F
100
AcDbEntity
  8
0
  6
Continuous
 62
     7
370
    15
100
AcDbLine
 10
206.353294166
 20
78.1726395177
 30
0.0
 11
186.7533051094
 21
78.1726395177
 31
0.0
  0
LINE
  5
537
330
1F
100
AcDbEntity
  8
0
  6
Continuous
 62
     7
370
    15
100
AcDbLine
 10
103.0533038696
 20
83.5726395996
 30
0.0
 11
106.0533024987
 21
83.5726395996
 31
0.0
  0
LINE
  5
538
330
1F
100
AcDbEntity
  8
0
  6
Continuous
 62
     7
370
    15
100
AcDbLine
 10
5.5533013923
 20
58.0726392033
 30
0.0
 11
2.5533013662
 21
58.0726392033
 31
0.0
  0
LINE
  5
539
330
1F
100
AcDbEntity
  8
0
  6
Continuous
 62
     7
370
    15
100
AcDbLine
 10
5.5533013923
 20
63.0726400229
 30
0.0
 11
5.5533013923
 21
58.0726392033
 31
0.0
  0
LINE
  5
53A
330
1F
100
AcDbEntity
  8
0
  6
Continuous
 62
     7
370
    15
100
AcDbLine
 10
2.5533013662
 20
63.0726400229
 30
0.0
 11
5.5533013923
 21
63.0726400229
 31
0.0
  0
LINE
  5
53B
330
1F
100
AcDbEntity
  8
0
  6
Continuous
 62
     7
370
    15
100
AcDbLine
 10
5.5533013923
 20
68.0726399111
 30
0.0
 11
2.5533013662
 21
68.0726399111
 31
0.0
  0
LINE
  5
53C
330
1F
100
AcDbEntity
  8
0
  6
Continuous
 62
     7
370
    15
100
AcDbLine
 10
5.5533013923
 20
73.0726397994
 30
0.0
 11
5.5533013923
 21
68.0726399111
 31
0.0
  0
LINE
  5
53D
330
1F
100
AcDbEntity
  8
0
  6
Continuous
 62
     7
370
    15
100
AcDbLine
 10
2.5533013662
 20
73.0726397994
 30
0.0
 11
5.5533013923
 21
73.0726397994
 31
0.0
  0
LINE
  5
53E
330
1F
100
AcDbEntity
  8
0
  6
Continuous
 62
     7
370
    15
100
AcDbLine
 10
5.5533013923
 20
78.0726396876
 30
0.0
 11
2.5533013662
 21
78.0726396876
 31
0.0
  0
LINE
  5
53F
330
1F
100
AcDbEntity
  8
0
  6
Continuous
 62
     7
370
    15
100
AcDbLine
 10
5.5533013923
 20
90.0726397919
 30
0.0
 11
5.5533013923
 21
78.0726396876
 31
0.0
  0
LINE
  5
540
330
1F
100
AcDbEntity
  8
0
  6
Continuous
 62
     7
370
    15
100
AcDbLine
 10
103.0533038696
 20
68.0726399111
 30
0.0
 11
103.0533038696
 21
83.5726395996
 31
0.0
  0
LINE
  5
541
330
1F
100
AcDbEntity
  8
0
  6
Continuous
 62
     7
370
    15
100
AcDbLine
 10
106.0533024987
 20
68.0726399111
 30
0.0
 11
103.0533038696
 21
68.0726399111
 31
0.0
  0
LINE
  5
542
330
1F
100
AcDbEntity
  8
0
  6
Continuous
 62
     7
370
    15
100
AcDbLine
 10
106.0533024987
 20
83.5726395996
 30
0.0
 11
106.0533024987
 21
68.0726399111
 31
0.0
  0
LINE
  5
543
330
1F
100
AcDbEntity
  8
0
  6
Continuous
 62
     7
370
    15
100
AcDbLine
 10
220.0533025583
 20
78.0726396876
 30
0.0
 11
220.0533025583
 21
90.0726397919
 31
0.0
  0
LINE
  5
544
330
1F
100
AcDbEntity
  8
0
  6
Continuous
 62
     7
370
    15
100
AcDbLine
 10
223.053308638
 20
78.0726396876
 30
0.0
 11
220.0533025583
 21
78.0726396876
 31
0.0
  0
LINE
  5
545
330
1F
100
AcDbEntity
  8
0
  6
Continuous
 62
     7
370
    15
100
AcDbLine
 10
220.0533025583
 20
73.0726397994
 30
0.0
 11
223.053308638
 21
73.0726397994
 31
0.0
  0
LINE
  5
546
330
1F
100
AcDbEntity
  8
0
  6
Continuous
 62
     7
370
    15
100
AcDbLine
 10
220.0533025583
 20
68.0726399111
 30
0.0
 11
220.0533025583
 21
73.0726397994
 31
0.0
  0
LINE
  5
547
330
1F
100
AcDbEntity
  8
0
  6
Continuous
 62
     7
370
    15
100
AcDbLine
 10
223.053308638
 20
68.0726399111
 30
0.0
 11
220.0533025583
 21
68.0726399111
 31
0.0
  0
LINE
  5
548
330
1F
100
AcDbEntity
  8
0
  6
Continuous
 62
     7
370
    15
100
AcDbLine
 10
220.0533025583
 20
63.0726400229
 30
0.0
 11
223.053308638
 21
63.0726400229
 31
0.0
  0
LINE
  5
549
330
1F
100
AcDbEntity
  8
0
  6
Continuous
 62
     7
370
    15
100
AcDbLine
 10
220.0533025583
 20
58.0726392033
 30
0.0
 11
220.0533025583
 21
63.0726400229
 31
0.0
  0
LINE
  5
54A
330
1F
100
AcDbEntity
  8
0
  6
Continuous
 62
     7
370
    15
100
AcDbLine
 10
223.053308638
 20
58.0726392033
 30
0.0
 11
220.0533025583
 21
58.0726392033
 31
0.0
  0
LINE
  5
54B
330
1F
100
AcDbEntity
  8
0
  6
Continuous
 62
     7
370
    15
100
AcDbLine
 10
220.0533025583
 20
53.0726402464
 30
0.0
 11
223.053308638
 21
53.0726402464
 31
0.0
  0
LINE
  5
54C
330
1F
100
AcDbEntity
  8
0
  6
Continuous
 62
     7
370
    15
100
AcDbLine
 10
220.0533025583
 20
50.0726397547
 30
0.0
 11
220.0533025583
 21
53.0726402464
 31
0.0
  0
LINE
  5
54D
330
1F
100
AcDbEntity
  8
0
  6
Continuous
 62
     7
370
    15
100
AcDbLine
 10
203.0532979091
 20
50.0726397547
 30
0.0
 11
220.0533025583
 21
50.0726397547
 31
0.0
  0
LINE
  5
54E
330
1F
100
AcDbEntity
  8
0
  6
Continuous
 62
     7
370
    15
100
AcDbLine
 10
203.0532979091
 20
53.0726402464
 30
0.0
 11
203.0532979091
 21
50.0726397547
 31
0.0
  0
LINE
  5
54F
330
1F
100
AcDbEntity
  8
0
  6
Continuous
 62
     7
370
    15
100
AcDbLine
 10
22.5533009192
 20
53.0726402464
 30
0.0
 11
203.0532979091
 21
53.0726402464
 31
0.0
  0
LINE
  5
550
330
1F
100
AcDbEntity
  8
0
  6
Continuous
 62
     7
370
    15
100
AcDbLine
 10
22.5533009192
 20
50.0726397547
 30
0.0
 11
22.5533009192
 21
53.0726402464
 31
0.0
  0
LINE
  5
551
330
1F
100
AcDbEntity
  8
0
  6
Continuous
 62
     7
370
    15
100
AcDbLine
 10
5.5533013923
 20
50.0726397547
 30
0.0
 11
22.5533009192
 21
50.0726397547
 31
0.0
  0
LINE
  5
552
330
1F
100
AcDbEntity
  8
0
  6
Continuous
 62
     7
370
    15
100
AcDbLine
 10
5.5533013923
 20
53.0726402464
 30
0.0
 11
5.5533013923
 21
50.0726397547
 31
0.0
  0
LINE
  5
553
330
1F
100
AcDbEntity
  8
0
  6
Continuous
 62
     7
370
    15
100
AcDbLine
 10
2.5533013662
 20
53.0726402464
 30
0.0
 11
5.5533013923
 21
53.0726402464
 31
0.0
  0
LINE
  5
554
330
1F
100
AcDbEntity
  8
0
  6
Continuous
 62
     7
370
    15
100
AcDbLine
 10
223.8316039967
 20
126.1679212561
 30
0.0
 11
223.8316039967
 21
131.1679212561
 31
0.0
  0
LINE
  5
555
330
1F
100
AcDbEntity
  8
0
  6
Continuous
 62
     7
370
    15
100
AcDbLine
 10
223.8316039967
 20
136.1679212561
 30
0.0
 11
223.8316039967
 21
141.1679212561
 31
0.0
  0
LINE
  5
556
330
1F
100
AcDbEntity
  8
0
  6
Continuous
 62
     7
370
    15
100
AcDbLine
 10
223.8316039967
 20
146.1679212561
 30
0.0
 11
223.8316039967
 21
151.1679212561
 31
0.0
  0
LINE
  5
557
330
1F
100
AcDbEntity
  8
0
  6
Continuous
 62
     7
370
    15
100
AcDbLine
 10
441.3316039967
 20
163.1679212561
 30
0.0
 11
226.8316039967
 21
163.1679212561
 31
0.0
  0
LINE
  5
558
330
1F
100
AcDbEntity
  8
0
  6
Continuous
 62
     7
370
    15
100
AcDbLine
 10
444.3316039967
 20
151.1679212561
 30
0.0
 11
444.3316039967
 21
146.1679212561
 31
0.0
  0
LINE
  5
559
330
1F
100
AcDbEntity
  8
0
  6
Continuous
 62
     7
370
    15
100
AcDbLine
 10
444.3316039967
 20
141.1679212561
 30
0.0
 11
444.3316039967
 21
136.1679212561
 31
0.0
  0
LINE
  5
55A
330
1F
100
AcDbEntity
  8
0
  6
Continuous
 62
     7
370
    15
100
AcDbLine
 10
444.3316039967
 20
131.1679212561
 30
0.0
 11
444.3316039967
 21
126.1679212561
 31
0.0
  0
LINE
  5
55B
330
1F
100
AcDbEntity
  8
0
  6
Continuous
 62
     7
370
    15
100
AcDbLine
 10
401.8316039967
 20
149.6679212561
 30
0.0
 11
401.8316039967
 21
139.6679212561
 31
0.0
  0
LINE
  5
55C
330
1F
100
AcDbEntity
  8
0
  6
Continuous
 62
     7
370
    15
100
AcDbLine
 10
401.8316039967
 20
139.6679212561
 30
0.0
 11
416.8316039967
 21
139.6679212561
 31
0.0
  0
LINE
  5
55D
330
1F
100
AcDbEntity
  8
0
  6
Continuous
 62
     7
370
    15
100
AcDbLine
 10
416.8316039967
 20
139.6679212561
 30
0.0
 11
416.8316039967
 21
149.6679212561
 31
0.0
  0
LINE
  5
55E
330
1F
100
AcDbEntity
  8
0
  6
Continuous
 62
     7
370
    15
100
AcDbLine
 10
416.8316039967
 20
149.6679212561
 30
0.0
 11
401.8316039967
 21
149.6679212561
 31
0.0
  0
CIRCLE
  5
55F
330
1F
100
AcDbEntity
  8
0
  6
Continuous
 62
     7
370
    15
100
AcDbCircle
 10
429.3316039967
 20
144.6679212561
 30
0.0
 40
5.0
  0
LINE
  5
560
330
1F
100
AcDbEntity
  8
0
  6
Continuous
 62
     7
370
    15
100
AcDbLine
 10
324.3316039967
 20
156.6679212561
 30
0.0
 11
327.3316039967
 21
156.6679212561
 31
0.0
  0
LINE
  5
561
330
1F
100
AcDbEntity
  8
0
  6
Continuous
 62
     7
370
    15
100
AcDbLine
 10
226.8316039967
 20
131.1679212561
 30
0.0
 11
223.8316039967
 21
131.1679212561
 31
0.0
  0
LINE
  5
562
330
1F
100
AcDbEntity
  8
0
  6
Continuous
 62
     7
370
    15
100
AcDbLine
 10
226.8316039967
 20
136.1679212561
 30
0.0
 11
226.8316039967
 21
131.1679212561
 31
0.0
  0
LINE
  5
563
330
1F
100
AcDbEntity
  8
0
  6
Continuous
 62
     7
370
    15
100
AcDbLine
 10
223.8316039967
 20
136.1679212561
 30
0.0
 11
226.8316039967
 21
136.1679212561
 31
0.0
  0
LINE
  5
564
330
1F
100
AcDbEntity
  8
0
  6
Continuous
 62
     7
370
    15
100
AcDbLine
 10
226.8316039967
 20
141.1679212561
 30
0.0
 11
223.8316039967
 21
141.1679212561
 31
0.0
  0
LINE
  5
565
330
1F
100
AcDbEntity
  8
0
  6
Continuous
 62
     7
370
    15
100
AcDbLine
 10
226.8316039967
 20
146.1679212561
 30
0.0
 11
226.8316039967
 21
141.1679212561
 31
0.0
  0
LINE
  5
566
330
1F
100
AcDbEntity
  8
0
  6
Continuous
 62
     7
370
    15
100
AcDbLine
 10
223.8316039967
 20
146.1679212561
 30
0.0
 11
226.8316039967
 21
146.1679212561
 31
0.0
  0
LINE
  5
567
330
1F
100
AcDbEntity
  8
0
  6
Continuous
 62
     7
370
    15
100
AcDbLine
 10
226.8316039967
 20
151.1679212561
 30
0.0
 11
223.8316039967
 21
151.1679212561
 31
0.0
  0
LINE
  5
568
330
1F
100
AcDbEntity
  8
0
  6
Continuous
 62
     7
370
    15
100
AcDbLine
 10
226.8316039967
 20
163.1679212561
 30
0.0
 11
226.8316039967
 21
151.1679212561
 31
0.0
  0
LINE
  5
569
330
1F
100
AcDbEntity
  8
0
  6
Continuous
 62
     7
370
    15
100
AcDbLine
 10
324.3316039967
 20
141.1679212561
 30
0.0
 11
324.3316039967
 21
156.6679212561
 31
0.0
  0
LINE
  5
56A
330
1F
100
AcDbEntity
  8
0
  6
Continuous
 62
     7
370
    15
100
AcDbLine
 10
327.3316039967
 20
141.1679212561
 30
0.0
 11
324.3316039967
 21
141.1679212561
 31
0.0
  0
LINE
  5
56B
330
1F
100
AcDbEntity
  8
0
  6
Continuous
 62
     7
370
    15
100
AcDbLine
 10
327.3316039967
 20
156.6679212561
 30
0.0
 11
327.3316039967
 21
141.1679212561
 31
0.0
  0
LINE
  5
56C
330
1F
100
AcDbEntity
  8
0
  6
Continuous
 62
     7
370
    15
100
AcDbLine
 10
441.3316039967
 20
151.1679212561
 30
0.0
 11
441.3316039967
 21
163.1679212561
 31
0.0
  0
LINE
  5
56D
330
1F
100
AcDbEntity
  8
0
  6
Continuous
 62
     7
370
    15
100
AcDbLine
 10
444.3316039967
 20
151.1679212561
 30
0.0
 11
441.3316039967
 21
151.1679212561
 31
0.0
  0
LINE
  5
56E
330
1F
100
AcDbEntity
  8
0
  6
Continuous
 62
     7
370
    15
100
AcDbLine
 10
441.3316039967
 20
146.1679212561
 30
0.0
 11
444.3316039967
 21
146.1679212561
 31
0.0
  0
LINE
  5
56F
330
1F
100
AcDbEntity
  8
0
  6
Continuous
 62
     7
370
    15
100
AcDbLine
 10
441.3316039967
 20
141.1679212561
 30
0.0
 11
441.3316039967
 21
146.1679212561
 31
0.0
  0
LINE
  5
570
330
1F
100
AcDbEntity
  8
0
  6
Continuous
 62
     7
370
    15
100
AcDbLine
 10
444.3316039967
 20
141.1679212561
 30
0.0
 11
441.3316039967
 21
141.1679212561
 31
0.0
  0
LINE
  5
571
330
1F
100
AcDbEntity
  8
0
  6
Continuous
 62
     7
370
    15
100
AcDbLine
 10
441.3316039967
 20
136.1679212561
 30
0.0
 11
444.3316039967
 21
136.1679212561
 31
0.0
  0
LINE
  5
572
330
1F
100
AcDbEntity
  8
0
  6
Continuous
 62
     7
370
    15
100
AcDbLine
 10
441.3316039967
 20
131.1679212561
 30
0.0
 11
441.3316039967
 21
136.1679212561
 31
0.0
  0
LINE
  5
573
330
1F
100
AcDbEntity
  8
0
  6
Continuous
 62
     7
370
    15
100
AcDbLine
 10
444.3316039967
 20
131.1679212561
 30
0.0
 11
441.3316039967
 21
131.1679212561
 31
0.0
  0
LINE
  5
574
330
1F
100
AcDbEntity
  8
0
  6
Continuous
 62
     7
370
    15
100
AcDbLine
 10
441.3316039967
 20
126.1679212561
 30
0.0
 11
444.3316039967
 21
126.1679212561
 31
0.0
  0
LINE
  5
575
330
1F
100
AcDbEntity
  8
0
  6
Continuous
 62
     7
370
    15
100
AcDbLine
 10
441.3316039967
 20
123.1679212561
 30
0.0
 11
441.3316039967
 21
126.1679212561
 31
0.0
  0
LINE
  5
576
330
1F
100
AcDbEntity
  8
0
  6
Continuous
 62
     7
370
    15
100
AcDbLine
 10
424.3316039967
 20
123.1679212561
 30
0.0
 11
441.3316039967
 21
123.1679212561
 31
0.0
  0
LINE
  5
577
330
1F
100
AcDbEntity
  8
0
  6
Continuous
 62
     7
370
    15
100
AcDbLine
 10
424.3316039967
 20
126.1679212561
 30
0.0
 11
424.3316039967
 21
123.1679212561
 31
0.0
  0
LINE
  5
578
330
1F
100
AcDbEntity
  8
0
  6
Continuous
 62
     7
370
    15
100
AcDbLine
 10
243.8316039967
 20
126.1679212561
 30
0.0
 11
424.3316039967
 21
126.1679212561
 31
0.0
  0
LINE
  5
579
330
1F
100
AcDbEntity
  8
0
  6
Continuous
 62
     7
370
    15
100
AcDbLine
 10
243.8316039967
 20
123.1679212561
 30
0.0
 11
243.8316039967
 21
126.1679212561
 31
0.0
  0
LINE
  5
57A
330
1F
100
AcDbEntity
  8
0
  6
Continuous
 62
     7
370
    15
100
AcDbLine
 10
226.8316039967
 20
123.1679212561
 30
0.0
 11
243.8316039967
 21
123.1679212561
 31
0.0
  0
LINE
  5
57B
330
1F
100
AcDbEntity
  8
0
  6
Continuous
 62
     7
370
    15
100
AcDbLine
 10
226.8316039967
 20
126.1679212561
 30
0.0
 11
226.8316039967
 21
123.1679212561
 31
0.0
  0
LINE
  5
57C
330
1F
100
AcDbEntity
  8
0
  6
Continuous
 62
     7
370
    15
100
AcDbLine
 10
223.8316039967
 20
126.1679212561
 30
0.0
 11
226.8316039967
 21
126.1679212561
 31
0.0
  0
LINE
  5
57D
330
1F
100
AcDbEntity
  8
0
  6
Continuous
 62
     7
370
    15
100
AcDbLine
 10
225.3995288225
 20
52.9679231165
 30
0.0
 11
225.3995288225
 21
57.9679220734
 31
0.0
  0
LINE
  5
57E
330
1F
100
AcDbEntity
  8
0
  6
Continuous
 62
     7
370
    15
100
AcDbLine
 10
225.3995288225
 20
62.967922893
 30
0.0
 11
225.3995288225
 21
67.9679227812
 31
0.0
  0
LINE
  5
57F
330
1F
100
AcDbEntity
  8
0
  6
Continuous
 62
     7
370
    15
100
AcDbLine
 10
225.3995288225
 20
72.9679226695
 30
0.0
 11
225.3995288225
 21
77.9679225577
 31
0.0
  0
LINE
  5
580
330
1F
100
AcDbEntity
  8
0
  6
Continuous
 62
     7
370
    15
100
AcDbLine
 10
442.8995300146
 20
89.967922662
 30
0.0
 11
228.3995288485
 21
89.967922662
 31
0.0
  0
LINE
  5
581
330
1F
100
AcDbEntity
  8
0
  6
Continuous
 62
     7
370
    15
100
AcDbLine
 10
445.8995360942
 20
77.9679225577
 30
0.0
 11
445.8995360942
 21
72.9679226695
 31
0.0
  0
LINE
  5
582
330
1F
100
AcDbEntity
  8
0
  6
Continuous
 62
     7
370
    15
100
AcDbLine
 10
445.8995360942
 20
67.9679227812
 30
0.0
 11
445.8995360942
 21
62.967922893
 31
0.0
  0
LINE
  5
583
330
1F
100
AcDbEntity
  8
0
  6
Continuous
 62
     7
370
    15
100
AcDbLine
 10
445.8995360942
 20
57.9679220734
 30
0.0
 11
445.8995360942
 21
52.9679231165
 31
0.0
  0
LINE
  5
584
330
1F
100
AcDbEntity
  8
0
  6
Continuous
 62
     7
370
    15
100
AcDbLine
 10
403.3995319219
 20
76.4679223119
 30
0.0
 11
403.3995319219
 21
66.4679225354
 31
0.0
  0
LINE
  5
585
330
1F
100
AcDbEntity
  8
0
  6
Continuous
 62
     7
370
    15
100
AcDbLine
 10
403.3995319219
 20
66.4679225354
 30
0.0
 11
418.399532518
 21
66.4679225354
 31
0.0
  0
LINE
  5
586
330
1F
100
AcDbEntity
  8
0
  6
Continuous
 62
     7
370
    15
100
AcDbLine
 10
418.399532518
 20
66.4679225354
 30
0.0
 11
418.399532518
 21
76.4679223119
 31
0.0
  0
LINE
  5
587
330
1F
100
AcDbEntity
  8
0
  6
Continuous
 62
     7
370
    15
100
AcDbLine
 10
418.399532518
 20
76.4679223119
 30
0.0
 11
403.3995319219
 21
76.4679223119
 31
0.0
  0
CIRCLE
  5
588
330
1F
100
AcDbEntity
  8
0
  6
Continuous
 62
     7
370
    15
100
AcDbCircle
 10
430.8995288225
 20
71.467922446
 30
0.0
 40
5.0
  0
LINE
  5
589
330
1F
100
AcDbEntity
  8
0
  6
Continuous
 62
     7
370
    15
100
AcDbLine
 10
325.8995313259
 20
83.4679224697
 30
0.0
 11
328.899529955
 21
83.4679224697
 31
0.0
  0
LINE
  5
58A
330
1F
100
AcDbEntity
  8
0
  6
Continuous
 62
     7
370
    15
100
AcDbLine
 10
228.3995288485
 20
57.9679220734
 30
0.0
 11
225.3995288225
 21
57.9679220734
 31
0.0
  0
LINE
  5
58B
330
1F
100
AcDbEntity
  8
0
  6
Continuous
 62
     7
370
    15
100
AcDbLine
 10
228.3995288485
 20
62.967922893
 30
0.0
 11
228.3995288485
 21
57.9679220734
 31
0.0
  0
LINE
  5
58C
330
1F
100
AcDbEntity
  8
0
  6
Continuous
 62
     7
370
    15
100
AcDbLine
 10
225.3995288225
 20
62.967922893
 30
0.0
 11
228.3995288485
 21
62.967922893
 31
0.0
  0
LINE
  5
58D
330
1F
100
AcDbEntity
  8
0
  6
Continuous
 62
     7
370
    15
100
AcDbLine
 10
228.3995288485
 20
67.9679227812
 30
0.0
 11
225.3995288225
 21
67.9679227812
 31
0.0
  0
LINE
  5
58E
330
1F
100
AcDbEntity
  8
0
  6
Continuous
 62
     7
370
    15
100
AcDbLine
 10
228.3995288485
 20
72.9679226695
 30
0.0
 11
228.3995288485
 21
67.9679227812
 31
0.0
  0
LINE
  5
58F
330
1F
100
AcDbEntity
  8
0
  6
Continuous
 62
     7
370
    15
100
AcDbLine
 10
225.3995288225
 20
72.9679226695
 30
0.0
 11
228.3995288485
 21
72.9679226695
 31
0.0
  0
LINE
  5
590
330
1F
100
AcDbEntity
  8
0
  6
Continuous
 62
     7
370
    15
100
AcDbLine
 10
228.3995288485
 20
77.9679225577
 30
0.0
 11
225.3995288225
 21
77.9679225577
 31
0.0
  0
LINE
  5
591
330
1F
100
AcDbEntity
  8
0
  6
Continuous
 62
     7
370
    15
100
AcDbLine
 10
228.3995288485
 20
89.967922662
 30
0.0
 11
228.3995288485
 21
77.9679225577
 31
0.0
  0
LINE
  5
592
330
1F
100
AcDbEntity
  8
0
  6
Continuous
 62
     7
370
    15
100
AcDbLine
 10
325.8995313259
 20
67.9679227812
 30
0.0
 11
325.8995313259
 21
83.4679224697
 31
0.0
  0
LINE
  5
593
330
1F
100
AcDbEntity
  8
0
  6
Continuous
 62
     7
370
    15
100
AcDbLine
 10
328.899529955
 20
67.9679227812
 30
0.0
 11
325.8995313259
 21
67.9679227812
 31
0.0
  0
LINE
  5
594
330
1F
100
AcDbEntity
  8
0
  6
Continuous
 62
     7
370
    15
100
AcDbLine
 10
328.899529955
 20
83.4679224697
 30
0.0
 11
328.899529955
 21
67.9679227812
 31
0.0
  0
LINE
  5
595
330
1F
100
AcDbEntity
  8
0
  6
Continuous
 62
     7
370
    15
100
AcDbLine
 10
442.8995300146
 20
77.9679225577
 30
0.0
 11
442.8995300146
 21
89.967922662
 31
0.0
  0
LINE
  5
596
330
1F
100
AcDbEntity
  8
0
  6
Continuous
 62
     7
370
    15
100
AcDbLine
 10
445.8995360942
 20
77.9679225577
 30
0.0
 11
442.8995300146
 21
77.9679225577
 31
0.0
  0
LINE
  5
597
330
1F
100
AcDbEntity
  8
0
  6
Continuous
 62
     7
370
    15
100
AcDbLine
 10
442.8995300146
 20
72.9679226695
 30
0.0
 11
445.8995360942
 21
72.9679226695
 31
0.0
  0
LINE
  5
598
330
1F
100
AcDbEntity
  8
0
  6
Continuous
 62
     7
370
    15
100
AcDbLine
 10
442.8995300146
 20
67.9679227812
 30
0.0
 11
442.8995300146
 21
72.9679226695
 31
0.0
  0
LINE
  5
599
330
1F
100
AcDbEntity
  8
0
  6
Continuous
 62
     7
370
    15
100
AcDbLine
 10
445.8995360942
 20
67.9679227812
 30
0.0
 11
442.8995300146
 21
67.9679227812
 31
0.0
  0
LINE
  5
59A
330
1F
100
AcDbEntity
  8
0
  6
Continuous
 62
     7
370
    15
100
AcDbLine
 10
442.8995300146
 20
62.967922893
 30
0.0
 11
445.8995360942
 21
62.967922893
 31
0.0
  0
LINE
  5
59B
330
1F
100
AcDbEntity
  8
0
  6
Continuous
 62
     7
370
    15
100
AcDbLine
 10
442.8995300146
 20
57.9679220734
 30
0.0
 11
442.8995300146
 21
62.967922893
 31
0.0
  0
LINE
  5
59C
330
1F
100
AcDbEntity
  8
0
  6
Continuous
 62
     7
370
    15
100
AcDbLine
 10
445.8995360942
 20
57.9679220734
 30
0.0
 11
442.8995300146
 21
57.9679220734
 31
0.0
  0
LINE
  5
59D
330
1F
100
AcDbEntity
  8
0
  6
Continuous
 62
     7
370
    15
100
AcDbLine
 10
442.8995300146
 20
52.9679231165
 30
0.0
 11
445.8995360942
 21
52.9679231165
 31
0.0
  0
LINE
  5
59E
330
1F
100
AcDbEntity
  8
0
  6
Continuous
 62
     7
370
    15
100
AcDbLine
 10
442.8995300146
 20
49.9679226248
 30
0.0
 11
442.8995300146
 21
52.9679231165
 31
0.0
  0
LINE
  5
59F
330
1F
100
AcDbEntity
  8
0
  6
Continuous
 62
     7
370
    15
100
AcDbLine
 10
425.8995253654
 20
49.9679226248
 30
0.0
 11
442.8995300146
 21
49.9679226248
 31
0.0
  0
LINE
  5
5A0
330
1F
100
AcDbEntity
  8
0
  6
Continuous
 62
     7
370
    15
100
AcDbLine
 10
425.8995253654
 20
52.9679231165
 30
0.0
 11
425.8995253654
 21
49.9679226248
 31
0.0
  0
LINE
  5
5A1
330
1F
100
AcDbEntity
  8
0
  6
Continuous
 62
     7
370
    15
100
AcDbLine
 10
245.3995283754
 20
52.9679231165
 30
0.0
 11
425.8995253654
 21
52.9679231165
 31
0.0
  0
LINE
  5
5A2
330
1F
100
AcDbEntity
  8
0
  6
Continuous
 62
     7
370
    15
100
AcDbLine
 10
245.3995283754
 20
49.9679226248
 30
0.0
 11
245.3995283754
 21
52.9679231165
 31
0.0
  0
LINE
  5
5A3
330
1F
100
AcDbEntity
  8
0
  6
Continuous
 62
     7
370
    15
100
AcDbLine
 10
228.3995288485
 20
49.9679226248
 30
0.0
 11
245.3995283754
 21
49.9679226248
 31
0.0
  0
LINE
  5
5A4
330
1F
100
AcDbEntity
  8
0
  6
Continuous
 62
     7
370
    15
100
AcDbLine
 10
228.3995288485
 20
52.9679231165
 30
0.0
 11
228.3995288485
 21
49.9679226248
 31
0.0
  0
LINE
  5
5A5
330
1F
100
AcDbEntity
  8
0
  6
Continuous
 62
     7
370
    15
100
AcDbLine
 10
225.3995288225
 20
52.9679231165
 30
0.0
 11
228.3995288485
 21
52.9679231165
 31
0.0
  0
LINE
  5
5A6
330
1F
100
AcDbEntity
  8
0
  6
Continuous
 62
     7
370
    15
100
AcDbLine
 10
711.8316297954
 20
463.517085759
 30
0.0
 11
711.8316297954
 21
448.5170860943
 31
0.0
  0
LINE
  5
5A7
330
1F
100
AcDbEntity
  8
0
  6
Continuous
 62
     7
370
    15
100
AcDbLine
 10
608.3316286629
 20
478.5170854237
 30
0.0
 11
577.8316264575
 21
478.5170854237
 31
0.0
  0
LINE
  5
5A8
330
1F
100
AcDbEntity
  8
0
  6
Continuous
 62
     7
370
    15
100
AcDbLine
 10
608.3316286629
 20
463.517085759
 30
0.0
 11
608.3316286629
 21
478.5170854237
 31
0.0
  0
LINE
  5
5A9
330
1F
100
AcDbEntity
  8
0
  6
Continuous
 62
     7
370
    15
100
AcDbLine
 10
611.331627292
 20
463.517085759
 30
0.0
 11
608.3316286629
 21
463.517085759
 31
0.0
  0
LINE
  5
5AA
330
1F
100
AcDbEntity
  8
0
  6
Continuous
 62
     7
370
    15
100
AcDbLine
 10
611.331627292
 20
478.5170854237
 30
0.0
 11
611.331627292
 21
463.517085759
 31
0.0
  0
LINE
  5
5AB
330
1F
100
AcDbEntity
  8
0
  6
Continuous
 62
     7
370
    15
100
AcDbLine
 10
641.8316294974
 20
478.5170854237
 30
0.0
 11
611.331627292
 21
478.5170854237
 31
0.0
  0
LINE
  5
5AC
330
1F
100
AcDbEntity
  8
0
  6
Continuous
 62
     7
370
    15
100
AcDbLine
 10
641.8316294974
 20
463.517085759
 30
0.0
 11
641.8316294974
 21
478.5170854237
 31
0.0
  0
LINE
  5
5AD
330
1F
100
AcDbEntity
  8
0
  6
Continuous
 62
     7
370
    15
100
AcDbLine
 10
644.8316281265
 20
463.517085759
 30
0.0
 11
641.8316294974
 21
463.517085759
 31
0.0
  0
LINE
  5
5AE
330
1F
100
AcDbEntity
  8
0
  6
Continuous
 62
     7
370
    15
100
AcDbLine
 10
644.8316281265
 20
478.5170854237
 30
0.0
 11
644.8316281265
 21
463.517085759
 31
0.0
  0
LINE
  5
5AF
330
1F
100
AcDbEntity
  8
0
  6
Continuous
 62
     7
370
    15
100
AcDbLine
 10
675.3316228813
 20
478.5170854237
 30
0.0
 11
644.8316281265
 21
478.5170854237
 31
0.0
  0
LINE
  5
5B0
330
1F
100
AcDbEntity
  8
0
  6
Continuous
 62
     7
370
    15
100
AcDbLine
 10
675.3316228813
 20
463.517085759
 30
0.0
 11
675.3316228813
 21
478.5170854237
 31
0.0
  0
LINE
  5
5B1
330
1F
100
AcDbEntity
  8
0
  6
Continuous
 62
     7
370
    15
100
AcDbLine
 10
678.3316289609
 20
463.517085759
 30
0.0
 11
675.3316228813
 21
463.517085759
 31
0.0
  0
LINE
  5
5B2
330
1F
100
AcDbEntity
  8
0
  6
Continuous
 62
     7
370
    15
100
AcDbLine
 10
678.3316289609
 20
478.5170854237
 30
0.0
 11
678.3316289609
 21
463.517085759
 31
0.0
  0
LINE
  5
5B3
330
1F
100
AcDbEntity
  8
0
  6
Continuous
 62
     7
370
    15
100
AcDbLine
 10
708.8316237157
 20
478.5170854237
 30
0.0
 11
678.3316289609
 21
478.5170854237
 31
0.0
  0
LINE
  5
5B4
330
1F
100
AcDbEntity
  8
0
  6
Continuous
 62
     7
370
    15
100
AcDbLine
 10
708.8316237157
 20
463.517085759
 30
0.0
 11
708.8316237157
 21
478.5170854237
 31
0.0
  0
LINE
  5
5B5
330
1F
100
AcDbEntity
  8
0
  6
Continuous
 62
     7
370
    15
100
AcDbLine
 10
711.8316297954
 20
463.517085759
 30
0.0
 11
708.8316237157
 21
463.517085759
 31
0.0
  0
LINE
  5
5B6
330
1F
100
AcDbEntity
  8
0
  6
Continuous
 62
     7
370
    15
100
AcDbLine
 10
648.5216250246
 20
448.5170860943
 30
0.0
 11
711.8316297954
 21
448.5170860943
 31
0.0
  0
LINE
  5
5B7
330
1F
100
AcDbEntity
  8
0
  6
Continuous
 62
     7
370
    15
100
AcDbLine
 10
648.5216250246
 20
445.5170856025
 30
0.0
 11
648.5216250246
 21
448.5170860943
 31
0.0
  0
LINE
  5
5B8
330
1F
100
AcDbEntity
  8
0
  6
Continuous
 62
     7
370
    15
100
AcDbLine
 10
638.5216271108
 20
445.5170856025
 30
0.0
 11
648.5216250246
 21
445.5170856025
 31
0.0
  0
LINE
  5
5B9
330
1F
100
AcDbEntity
  8
0
  6
Continuous
 62
     7
370
    15
100
AcDbLine
 10
638.5216271108
 20
448.5170860943
 30
0.0
 11
638.5216271108
 21
445.5170856025
 31
0.0
  0
LINE
  5
5BA
330
1F
100
AcDbEntity
  8
0
  6
Continuous
 62
     7
370
    15
100
AcDbLine
 10
549.8316255933
 20
448.5170860943
 30
0.0
 11
638.5216271108
 21
448.5170860943
 31
0.0
  0
LINE
  5
5BB
330
1F
100
AcDbEntity
  8
0
  6
Continuous
 62
     7
370
    15
100
AcDbLine
 10
549.8316255933
 20
450.5170845594
 30
0.0
 11
549.8316255933
 21
448.5170860943
 31
0.0
  0
LINE
  5
5BC
330
1F
100
AcDbEntity
  8
0
  6
Continuous
 62
     7
370
    15
100
AcDbLine
 10
544.3316260887
 20
450.5170845594
 30
0.0
 11
549.8316255933
 21
450.5170845594
 31
0.0
  0
LINE
  5
5BD
330
1F
100
AcDbEntity
  8
0
  6
Continuous
 62
     7
370
    15
100
AcDbLine
 10
544.3316260887
 20
478.5170854237
 30
0.0
 11
544.3316260887
 21
450.5170845594
 31
0.0
  0
LINE
  5
5BE
330
1F
100
AcDbEntity
  8
0
  6
Continuous
 62
     7
370
    15
100
AcDbLine
 10
574.8316278284
 20
478.5170854237
 30
0.0
 11
544.3316260887
 21
478.5170854237
 31
0.0
  0
LINE
  5
5BF
330
1F
100
AcDbEntity
  8
0
  6
Continuous
 62
     7
370
    15
100
AcDbLine
 10
574.8316278284
 20
463.517085759
 30
0.0
 11
574.8316278284
 21
478.5170854237
 31
0.0
  0
LINE
  5
5C0
330
1F
100
AcDbEntity
  8
0
  6
Continuous
 62
     7
370
    15
100
AcDbLine
 10
577.8316264575
 20
463.517085759
 30
0.0
 11
574.8316278284
 21
463.517085759
 31
0.0
  0
LINE
  5
5C1
330
1F
100
AcDbEntity
  8
0
  6
Continuous
 62
     7
370
    15
100
AcDbLine
 10
577.8316264575
 20
478.5170854237
 30
0.0
 11
577.8316264575
 21
463.517085759
 31
0.0
  0
LINE
  5
5C2
330
1F
100
AcDbEntity
  8
0
  6
Continuous
 62
     7
370
    15
100
AcDbLine
 10
712.5330760392
 20
389.1637839168
 30
0.0
 11
712.5330760392
 21
374.1637842521
 31
0.0
  0
LINE
  5
5C3
330
1F
100
AcDbEntity
  8
0
  6
Continuous
 62
     7
370
    15
100
AcDbLine
 10
609.0330749067
 20
404.1637835815
 30
0.0
 11
578.5330727013
 21
404.1637835815
 31
0.0
  0
LINE
  5
5C4
330
1F
100
AcDbEntity
  8
0
  6
Continuous
 62
     7
370
    15
100
AcDbLine
 10
609.0330749067
 20
389.1637839168
 30
0.0
 11
609.0330749067
 21
404.1637835815
 31
0.0
  0
LINE
  5
5C5
330
1F
100
AcDbEntity
  8
0
  6
Continuous
 62
     7
370
    15
100
AcDbLine
 10
612.0330735358
 20
389.1637839168
 30
0.0
 11
609.0330749067
 21
389.1637839168
 31
0.0
  0
LINE
  5
5C6
330
1F
100
AcDbEntity
  8
0
  6
Continuous
 62
     7
370
    15
100
AcDbLine
 10
612.0330735358
 20
404.1637835815
 30
0.0
 11
612.0330735358
 21
389.1637839168
 31
0.0
  0
LINE
  5
5C7
330
1F
100
AcDbEntity
  8
0
  6
Continuous
 62
     7
370
    15
100
AcDbLine
 10
642.5330757412
 20
404.1637835815
 30
0.0
 11
612.0330735358
 21
404.1637835815
 31
0.0
  0
LINE
  5
5C8
330
1F
100
AcDbEntity
  8
0
  6
Continuous
 62
     7
370
    15
100
AcDbLine
 10
642.5330757412
 20
389.1637839168
 30
0.0
 11
642.5330757412
 21
404.1637835815
 31
0.0
  0
LINE
  5
5C9
330
1F
100
AcDbEntity
  8
0
  6
Continuous
 62
     7
370
    15
100
AcDbLine
 10
645.5330743703
 20
389.1637839168
 30
0.0
 11
642.5330757412
 21
389.1637839168
 31
0.0
  0
LINE
  5
5CA
330
1F
100
AcDbEntity
  8
0
  6
Continuous
 62
     7
370
    15
100
AcDbLine
 10
645.5330743703
 20
404.1637835815
 30
0.0
 11
645.5330743703
 21
389.1637839168
 31
0.0
  0
LINE
  5
5CB
330
1F
100
AcDbEntity
  8
0
  6
Continuous
 62
     7
370
    15
100
AcDbLine
 10
676.0330691251
 20
404.1637835815
 30
0.0
 11
645.5330743703
 21
404.1637835815
 31
0.0
  0
LINE
  5
5CC
330
1F
100
AcDbEntity
  8
0
  6
Continuous
 62
     7
370
    15
100
AcDbLine
 10
676.0330691251
 20
389.1637839168
 30
0.0
 11
676.0330691251
 21
404.1637835815
 31
0.0
  0
LINE
  5
5CD
330
1F
100
AcDbEntity
  8
0
  6
Continuous
 62
     7
370
    15
100
AcDbLine
 10
679.0330752047
 20
389.1637839168
 30
0.0
 11
676.0330691251
 21
389.1637839168
 31
0.0
  0
LINE
  5
5CE
330
1F
100
AcDbEntity
  8
0
  6
Continuous
 62
     7
370
    15
100
AcDbLine
 10
679.0330752047
 20
404.1637835815
 30
0.0
 11
679.0330752047
 21
389.1637839168
 31
0.0
  0
LINE
  5
5CF
330
1F
100
AcDbEntity
  8
0
  6
Continuous
 62
     7
370
    15
100
AcDbLine
 10
709.5330699595
 20
404.1637835815
 30
0.0
 11
679.0330752047
 21
404.1637835815
 31
0.0
  0
LINE
  5
5D0
330
1F
100
AcDbEntity
  8
0
  6
Continuous
 62
     7
370
    15
100
AcDbLine
 10
709.5330699595
 20
389.1637839168
 30
0.0
 11
709.5330699595
 21
404.1637835815
 31
0.0
  0
LINE
  5
5D1
330
1F
100
AcDbEntity
  8
0
  6
Continuous
 62
     7
370
    15
100
AcDbLine
 10
712.5330760392
 20
389.1637839168
 30
0.0
 11
709.5330699595
 21
389.1637839168
 31
0.0
  0
LINE
  5
5D2
330
1F
100
AcDbEntity
  8
0
  6
Continuous
 62
     7
370
    15
100
AcDbLine
 10
649.2230712684
 20
374.1637842521
 30
0.0
 11
712.5330760392
 21
374.1637842521
 31
0.0
  0
LINE
  5
5D3
330
1F
100
AcDbEntity
  8
0
  6
Continuous
 62
     7
370
    15
100
AcDbLine
 10
649.2230712684
 20
371.1637837603
 30
0.0
 11
649.2230712684
 21
374.1637842521
 31
0.0
  0
LINE
  5
5D4
330
1F
100
AcDbEntity
  8
0
  6
Continuous
 62
     7
370
    15
100
AcDbLine
 10
639.2230733546
 20
371.1637837603
 30
0.0
 11
649.2230712684
 21
371.1637837603
 31
0.0
  0
LINE
  5
5D5
330
1F
100
AcDbEntity
  8
0
  6
Continuous
 62
     7
370
    15
100
AcDbLine
 10
639.2230733546
 20
374.1637842521
 30
0.0
 11
639.2230733546
 21
371.1637837603
 31
0.0
  0
LINE
  5
5D6
330
1F
100
AcDbEntity
  8
0
  6
Continuous
 62
     7
370
    15
100
AcDbLine
 10
550.5330718371
 20
374.1637842521
 30
0.0
 11
639.2230733546
 21
374.1637842521
 31
0.0
  0
LINE
  5
5D7
330
1F
100
AcDbEntity
  8
0
  6
Continuous
 62
     7
370
    15
100
AcDbLine
 10
550.5330718371
 20
376.1637827173
 30
0.0
 11
550.5330718371
 21
374.1637842521
 31
0.0
  0
LINE
  5
5D8
330
1F
100
AcDbEntity
  8
0
  6
Continuous
 62
     7
370
    15
100
AcDbLine
 10
545.0330723325
 20
376.1637827173
 30
0.0
 11
550.5330718371
 21
376.1637827173
 31
0.0
  0
LINE
  5
5D9
330
1F
100
AcDbEntity
  8
0
  6
Continuous
 62
     7
370
    15
100
AcDbLine
 10
545.0330723325
 20
404.1637835815
 30
0.0
 11
545.0330723325
 21
376.1637827173
 31
0.0
  0
LINE
  5
5DA
330
1F
100
AcDbEntity
  8
0
  6
Continuous
 62
     7
370
    15
100
AcDbLine
 10
575.5330740722
 20
404.1637835815
 30
0.0
 11
545.0330723325
 21
404.1637835815
 31
0.0
  0
LINE
  5
5DB
330
1F
100
AcDbEntity
  8
0
  6
Continuous
 62
     7
370
    15
100
AcDbLine
 10
575.5330740722
 20
389.1637839168
 30
0.0
 11
575.5330740722
 21
404.1637835815
 31
0.0
  0
LINE
  5
5DC
330
1F
100
AcDbEntity
  8
0
  6
Continuous
 62
     7
370
    15
100
AcDbLine
 10
578.5330727013
 20
389.1637839168
 30
0.0
 11
575.5330740722
 21
389.1637839168
 31
0.0
  0
LINE
  5
5DD
330
1F
100
AcDbEntity
  8
0
  6
Continuous
 62
     7
370
    15
100
AcDbLine
 10
578.5330727013
 20
404.1637835815
 30
0.0
 11
578.5330727013
 21
389.1637839168
 31
0.0
  0
LINE
  5
5DE
330
1F
100
AcDbEntity
  8
0
  6
Continuous
 62
     7
370
    15
100
AcDbLine
 10
709.727291064
 20
500.6937366801
 30
0.0
 11
709.727291064
 21
485.6937370153
 31
0.0
  0
LINE
  5
5DF
330
1F
100
AcDbEntity
  8
0
  6
Continuous
 62
     7
370
    15
100
AcDbLine
 10
606.2272899315
 20
515.6937363448
 30
0.0
 11
575.7272877262
 21
515.6937363448
 31
0.0
  0
LINE
  5
5E0
330
1F
100
AcDbEntity
  8
0
  6
Continuous
 62
     7
370
    15
100
AcDbLine
 10
606.2272899315
 20
500.6937366801
 30
0.0
 11
606.2272899315
 21
515.6937363448
 31
0.0
  0
LINE
  5
5E1
330
1F
100
AcDbEntity
  8
0
  6
Continuous
 62
     7
370
    15
100
AcDbLine
 10
609.2272885606
 20
500.6937366801
 30
0.0
 11
606.2272899315
 21
500.6937366801
 31
0.0
  0
LINE
  5
5E2
330
1F
100
AcDbEntity
  8
0
  6
Continuous
 62
     7
370
    15
100
AcDbLine
 10
609.2272885606
 20
515.6937363448
 30
0.0
 11
609.2272885606
 21
500.6937366801
 31
0.0
  0
LINE
  5
5E3
330
1F
100
AcDbEntity
  8
0
  6
Continuous
 62
     7
370
    15
100
AcDbLine
 10
639.727290766
 20
515.6937363448
 30
0.0
 11
609.2272885606
 21
515.6937363448
 31
0.0
  0
LINE
  5
5E4
330
1F
100
AcDbEntity
  8
0
  6
Continuous
 62
     7
370
    15
100
AcDbLine
 10
639.727290766
 20
500.6937366801
 30
0.0
 11
639.727290766
 21
515.6937363448
 31
0.0
  0
LINE
  5
5E5
330
1F
100
AcDbEntity
  8
0
  6
Continuous
 62
     7
370
    15
100
AcDbLine
 10
642.7272893951
 20
500.6937366801
 30
0.0
 11
639.727290766
 21
500.6937366801
 31
0.0
  0
LINE
  5
5E6
330
1F
100
AcDbEntity
  8
0
  6
Continuous
 62
     7
370
    15
100
AcDbLine
 10
642.7272893951
 20
515.6937363448
 30
0.0
 11
642.7272893951
 21
500.6937366801
 31
0.0
  0
LINE
  5
5E7
330
1F
100
AcDbEntity
  8
0
  6
Continuous
 62
     7
370
    15
100
AcDbLine
 10
673.2272841499
 20
515.6937363448
 30
0.0
 11
642.7272893951
 21
515.6937363448
 31
0.0
  0
LINE
  5
5E8
330
1F
100
AcDbEntity
  8
0
  6
Continuous
 62
     7
370
    15
100
AcDbLine
 10
673.2272841499
 20
500.6937366801
 30
0.0
 11
673.2272841499
 21
515.6937363448
 31
0.0
  0
LINE
  5
5E9
330
1F
100
AcDbEntity
  8
0
  6
Continuous
 62
     7
370
    15
100
AcDbLine
 10
676.2272902295
 20
500.6937366801
 30
0.0
 11
673.2272841499
 21
500.6937366801
 31
0.0
  0
LINE
  5
5EA
330
1F
100
AcDbEntity
  8
0
  6
Continuous
 62
     7
370
    15
100
AcDbLine
 10
676.2272902295
 20
515.6937363448
 30
0.0
 11
676.2272902295
 21
500.6937366801
 31
0.0
  0
LINE
  5
5EB
330
1F
100
AcDbEntity
  8
0
  6
Continuous
 62
     7
370
    15
100
AcDbLine
 10
706.7272849843
 20
515.6937363448
 30
0.0
 11
676.2272902295
 21
515.6937363448
 31
0.0
  0
LINE
  5
5EC
330
1F
100
AcDbEntity
  8
0
  6
Continuous
 62
     7
370
    15
100
AcDbLine
 10
706.7272849843
 20
500.6937366801
 30
0.0
 11
706.7272849843
 21
515.6937363448
 31
0.0
  0
LINE
  5
5ED
330
1F
100
AcDbEntity
  8
0
  6
Continuous
 62
     7
370
    15
100
AcDbLine
 10
709.727291064
 20
500.6937366801
 30
0.0
 11
706.7272849843
 21
500.6937366801
 31
0.0
  0
LINE
  5
5EE
330
1F
100
AcDbEntity
  8
0
  6
Continuous
 62
     7
370
    15
100
AcDbLine
 10
646.4172862933
 20
485.6937370153
 30
0.0
 11
709.727291064
 21
485.6937370153
 31
0.0
  0
LINE
  5
5EF
330
1F
100
AcDbEntity
  8
0
  6
Continuous
 62
     7
370
    15
100
AcDbLine
 10
646.4172862933
 20
482.6937365236
 30
0.0
 11
646.4172862933
 21
485.6937370153
 31
0.0
  0
LINE
  5
5F0
330
1F
100
AcDbEntity
  8
0
  6
Continuous
 62
     7
370
    15
100
AcDbLine
 10
636.4172883794
 20
482.6937365236
 30
0.0
 11
646.4172862933
 21
482.6937365236
 31
0.0
  0
LINE
  5
5F1
330
1F
100
AcDbEntity
  8
0
  6
Continuous
 62
     7
370
    15
100
AcDbLine
 10
636.4172883794
 20
485.6937370153
 30
0.0
 11
636.4172883794
 21
482.6937365236
 31
0.0
  0
LINE
  5
5F2
330
1F
100
AcDbEntity
  8
0
  6
Continuous
 62
     7
370
    15
100
AcDbLine
 10
547.7272868619
 20
485.6937370153
 30
0.0
 11
636.4172883794
 21
485.6937370153
 31
0.0
  0
LINE
  5
5F3
330
1F
100
AcDbEntity
  8
0
  6
Continuous
 62
     7
370
    15
100
AcDbLine
 10
547.7272868619
 20
487.6937354805
 30
0.0
 11
547.7272868619
 21
485.6937370153
 31
0.0
  0
LINE
  5
5F4
330
1F
100
AcDbEntity
  8
0
  6
Continuous
 62
     7
370
    15
100
AcDbLine
 10
542.2272873573
 20
487.6937354805
 30
0.0
 11
547.7272868619
 21
487.6937354805
 31
0.0
  0
LINE
  5
5F5
330
1F
100
AcDbEntity
  8
0
  6
Continuous
 62
     7
370
    15
100
AcDbLine
 10
542.2272873573
 20
515.6937363448
 30
0.0
 11
542.2272873573
 21
487.6937354805
 31
0.0
  0
LINE
  5
5F6
330
1F
100
AcDbEntity
  8
0
  6
Continuous
 62
     7
370
    15
100
AcDbLine
 10
572.7272890971
 20
515.6937363448
 30
0.0
 11
542.2272873573
 21
515.6937363448
 31
0.0
  0
LINE
  5
5F7
330
1F
100
AcDbEntity
  8
0
  6
Continuous
 62
     7
370
    15
100
AcDbLine
 10
572.7272890971
 20
500.6937366801
 30
0.0
 11
572.7272890971
 21
515.6937363448
 31
0.0
  0
LINE
  5
5F8
330
1F
100
AcDbEntity
  8
0
  6
Continuous
 62
     7
370
    15
100
AcDbLine
 10
575.7272877262
 20
500.6937366801
 30
0.0
 11
572.7272890971
 21
500.6937366801
 31
0.0
  0
LINE
  5
5F9
330
1F
100
AcDbEntity
  8
0
  6
Continuous
 62
     7
370
    15
100
AcDbLine
 10
575.7272877262
 20
515.6937363448
 30
0.0
 11
575.7272877262
 21
500.6937366801
 31
0.0
  0
LINE
  5
5FA
330
1F
100
AcDbEntity
  8
0
  6
Continuous
 62
     7
370
    15
100
AcDbLine
 10
716.0403072582
 20
279.7381698849
 30
0.0
 11
716.0403072582
 21
264.7381702202
 31
0.0
  0
LINE
  5
5FB
330
1F
100
AcDbEntity
  8
0
  6
Continuous
 62
     7
370
    15
100
AcDbLine
 10
612.5403061257
 20
294.7381695497
 30
0.0
 11
582.0403039203
 21
294.7381695497
 31
0.0
  0
LINE
  5
5FC
330
1F
100
AcDbEntity
  8
0
  6
Continuous
 62
     7
370
    15
100
AcDbLine
 10
612.5403061257
 20
279.7381698849
 30
0.0
 11
612.5403061257
 21
294.7381695497
 31
0.0
  0
LINE
  5
5FD
330
1F
100
AcDbEntity
  8
0
  6
Continuous
 62
     7
370
    15
100
AcDbLine
 10
615.5403047548
 20
279.7381698849
 30
0.0
 11
612.5403061257
 21
279.7381698849
 31
0.0
  0
LINE
  5
5FE
330
1F
100
AcDbEntity
  8
0
  6
Continuous
 62
     7
370
    15
100
AcDbLine
 10
615.5403047548
 20
294.7381695497
 30
0.0
 11
615.5403047548
 21
279.7381698849
 31
0.0
  0
LINE
  5
5FF
330
1F
100
AcDbEntity
  8
0
  6
Continuous
 62
     7
370
    15
100
AcDbLine
 10
646.0403069601
 20
294.7381695497
 30
0.0
 11
615.5403047548
 21
294.7381695497
 31
0.0
  0
LINE
  5
600
330
1F
100
AcDbEntity
  8
0
  6
Continuous
 62
     7
370
    15
100
AcDbLine
 10
646.0403069601
 20
279.7381698849
 30
0.0
 11
646.0403069601
 21
294.7381695497
 31
0.0
  0
LINE
  5
601
330
1F
100
AcDbEntity
  8
0
  6
Continuous
 62
     7
370
    15
100
AcDbLine
 10
649.0403055892
 20
279.7381698849
 30
0.0
 11
646.0403069601
 21
279.7381698849
 31
0.0
  0
LINE
  5
602
330
1F
100
AcDbEntity
  8
0
  6
Continuous
 62
     7
370
    15
100
AcDbLine
 10
649.0403055892
 20
294.7381695497
 30
0.0
 11
649.0403055892
 21
279.7381698849
 31
0.0
  0
LINE
  5
603
330
1F
100
AcDbEntity
  8
0
  6
Continuous
 62
     7
370
    15
100
AcDbLine
 10
679.540300344
 20
294.7381695497
 30
0.0
 11
649.0403055892
 21
294.7381695497
 31
0.0
  0
LINE
  5
604
330
1F
100
AcDbEntity
  8
0
  6
Continuous
 62
     7
370
    15
100
AcDbLine
 10
679.540300344
 20
279.7381698849
 30
0.0
 11
679.540300344
 21
294.7381695497
 31
0.0
  0
LINE
  5
605
330
1F
100
AcDbEntity
  8
0
  6
Continuous
 62
     7
370
    15
100
AcDbLine
 10
682.5403064237
 20
279.7381698849
 30
0.0
 11
679.540300344
 21
279.7381698849
 31
0.0
  0
LINE
  5
606
330
1F
100
AcDbEntity
  8
0
  6
Continuous
 62
     7
370
    15
100
AcDbLine
 10
682.5403064237
 20
294.7381695497
 30
0.0
 11
682.5403064237
 21
279.7381698849
 31
0.0
  0
LINE
  5
607
330
1F
100
AcDbEntity
  8
0
  6
Continuous
 62
     7
370
    15
100
AcDbLine
 10
713.0403011785
 20
294.7381695497
 30
0.0
 11
682.5403064237
 21
294.7381695497
 31
0.0
  0
LINE
  5
608
330
1F
100
AcDbEntity
  8
0
  6
Continuous
 62
     7
370
    15
100
AcDbLine
 10
713.0403011785
 20
279.7381698849
 30
0.0
 11
713.0403011785
 21
294.7381695497
 31
0.0
  0
LINE
  5
609
330
1F
100
AcDbEntity
  8
0
  6
Continuous
 62
     7
370
    15
100
AcDbLine
 10
716.0403072582
 20
279.7381698849
 30
0.0
 11
713.0403011785
 21
279.7381698849
 31
0.0
  0
LINE
  5
60A
330
1F
100
AcDbEntity
  8
0
  6
Continuous
 62
     7
370
    15
100
AcDbLine
 10
652.7303024874
 20
264.7381702202
 30
0.0
 11
716.0403072582
 21
264.7381702202
 31
0.0
  0
LINE
  5
60B
330
1F
100
AcDbEntity
  8
0
  6
Continuous
 62
     7
370
    15
100
AcDbLine
 10
652.7303024874
 20
261.7381697285
 30
0.0
 11
652.7303024874
 21
264.7381702202
 31
0.0
  0
LINE
  5
60C
330
1F
100
AcDbEntity
  8
0
  6
Continuous
 62
     7
370
    15
100
AcDbLine
 10
642.7303045736
 20
261.7381697285
 30
0.0
 11
652.7303024874
 21
261.7381697285
 31
0.0
  0
LINE
  5
60D
330
1F
100
AcDbEntity
  8
0
  6
Continuous
 62
     7
370
    15
100
AcDbLine
 10
642.7303045736
 20
264.7381702202
 30
0.0
 11
642.7303045736
 21
261.7381697285
 31
0.0
  0
LINE
  5
60E
330
1F
100
AcDbEntity
  8
0
  6
Continuous
 62
     7
370
    15
100
AcDbLine
 10
554.040303056
 20
264.7381702202
 30
0.0
 11
642.7303045736
 21
264.7381702202
 31
0.0
  0
LINE
  5
60F
330
1F
100
AcDbEntity
  8
0
  6
Continuous
 62
     7
370
    15
100
AcDbLine
 10
554.040303056
 20
266.7381686854
 30
0.0
 11
554.040303056
 21
264.7381702202
 31
0.0
  0
LINE
  5
610
330
1F
100
AcDbEntity
  8
0
  6
Continuous
 62
     7
370
    15
100
AcDbLine
 10
548.5403035515
 20
266.7381686854
 30
0.0
 11
554.040303056
 21
266.7381686854
 31
0.0
  0
LINE
  5
611
330
1F
100
AcDbEntity
  8
0
  6
Continuous
 62
     7
370
    15
100
AcDbLine
 10
548.5403035515
 20
294.7381695497
 30
0.0
 11
548.5403035515
 21
266.7381686854
 31
0.0
  0
LINE
  5
612
330
1F
100
AcDbEntity
  8
0
  6
Continuous
 62
     7
370
    15
100
AcDbLine
 10
579.0403052912
 20
294.7381695497
 30
0.0
 11
548.5403035515
 21
294.7381695497
 31
0.0
  0
LINE
  5
613
330
1F
100
AcDbEntity
  8
0
  6
Continuous
 62
     7
370
    15
100
AcDbLine
 10
579.0403052912
 20
279.7381698849
 30
0.0
 11
579.0403052912
 21
294.7381695497
 31
0.0
  0
LINE
  5
614
330
1F
100
AcDbEntity
  8
0
  6
Continuous
 62
     7
370
    15
100
AcDbLine
 10
582.0403039203
 20
279.7381698849
 30
0.0
 11
579.0403052912
 21
279.7381698849
 31
0.0
  0
LINE
  5
615
330
1F
100
AcDbEntity
  8
0
  6
Continuous
 62
     7
370
    15
100
AcDbLine
 10
582.0403039203
 20
294.7381695497
 30
0.0
 11
582.0403039203
 21
279.7381698849
 31
0.0
  0
LINE
  5
616
330
1F
100
AcDbEntity
  8
0
  6
Continuous
 62
     7
370
    15
100
AcDbLine
 10
717.4431997457
 20
241.8600727201
 30
0.0
 11
717.4431997457
 21
226.8600730553
 31
0.0
  0
LINE
  5
617
330
1F
100
AcDbEntity
  8
0
  6
Continuous
 62
     7
370
    15
100
AcDbLine
 10
613.9431986133
 20
256.8600723848
 30
0.0
 11
583.4431964079
 21
256.8600723848
 31
0.0
  0
LINE
  5
618
330
1F
100
AcDbEntity
  8
0
  6
Continuous
 62
     7
370
    15
100
AcDbLine
 10
613.9431986133
 20
241.8600727201
 30
0.0
 11
613.9431986133
 21
256.8600723848
 31
0.0
  0
LINE
  5
619
330
1F
100
AcDbEntity
  8
0
  6
Continuous
 62
     7
370
    15
100
AcDbLine
 10
616.9431972424
 20
241.8600727201
 30
0.0
 11
613.9431986133
 21
241.8600727201
 31
0.0
  0
LINE
  5
61A
330
1F
100
AcDbEntity
  8
0
  6
Continuous
 62
     7
370
    15
100
AcDbLine
 10
616.9431972424
 20
256.8600723848
 30
0.0
 11
616.9431972424
 21
241.8600727201
 31
0.0
  0
LINE
  5
61B
330
1F
100
AcDbEntity
  8
0
  6
Continuous
 62
     7
370
    15
100
AcDbLine
 10
647.4431994477
 20
256.8600723848
 30
0.0
 11
616.9431972424
 21
256.8600723848
 31
0.0
  0
LINE
  5
61C
330
1F
100
AcDbEntity
  8
0
  6
Continuous
 62
     7
370
    15
100
AcDbLine
 10
647.4431994477
 20
241.8600727201
 30
0.0
 11
647.4431994477
 21
256.8600723848
 31
0.0
  0
LINE
  5
61D
330
1F
100
AcDbEntity
  8
0
  6
Continuous
 62
     7
370
    15
100
AcDbLine
 10
650.4431980768
 20
241.8600727201
 30
0.0
 11
647.4431994477
 21
241.8600727201
 31
0.0
  0
LINE
  5
61E
330
1F
100
AcDbEntity
  8
0
  6
Continuous
 62
     7
370
    15
100
AcDbLine
 10
650.4431980768
 20
256.8600723848
 30
0.0
 11
650.4431980768
 21
241.8600727201
 31
0.0
  0
LINE
  5
61F
330
1F
100
AcDbEntity
  8
0
  6
Continuous
 62
     7
370
    15
100
AcDbLine
 10
680.9431928316
 20
256.8600723848
 30
0.0
 11
650.4431980768
 21
256.8600723848
 31
0.0
  0
LINE
  5
620
330
1F
100
AcDbEntity
  8
0
  6
Continuous
 62
     7
370
    15
100
AcDbLine
 10
680.9431928316
 20
241.8600727201
 30
0.0
 11
680.9431928316
 21
256.8600723848
 31
0.0
  0
LINE
  5
621
330
1F
100
AcDbEntity
  8
0
  6
Continuous
 62
     7
370
    15
100
AcDbLine
 10
683.9431989113
 20
241.8600727201
 30
0.0
 11
680.9431928316
 21
241.8600727201
 31
0.0
  0
LINE
  5
622
330
1F
100
AcDbEntity
  8
0
  6
Continuous
 62
     7
370
    15
100
AcDbLine
 10
683.9431989113
 20
256.8600723848
 30
0.0
 11
683.9431989113
 21
241.8600727201
 31
0.0
  0
LINE
  5
623
330
1F
100
AcDbEntity
  8
0
  6
Continuous
 62
     7
370
    15
100
AcDbLine
 10
714.4431936661
 20
256.8600723848
 30
0.0
 11
683.9431989113
 21
256.8600723848
 31
0.0
  0
LINE
  5
624
330
1F
100
AcDbEntity
  8
0
  6
Continuous
 62
     7
370
    15
100
AcDbLine
 10
714.4431936661
 20
241.8600727201
 30
0.0
 11
714.4431936661
 21
256.8600723848
 31
0.0
  0
LINE
  5
625
330
1F
100
AcDbEntity
  8
0
  6
Continuous
 62
     7
370
    15
100
AcDbLine
 10
717.4431997457
 20
241.8600727201
 30
0.0
 11
714.4431936661
 21
241.8600727201
 31
0.0
  0
LINE
  5
626
330
1F
100
AcDbEntity
  8
0
  6
Continuous
 62
     7
370
    15
100
AcDbLine
 10
654.133194975
 20
226.8600730553
 30
0.0
 11
717.4431997457
 21
226.8600730553
 31
0.0
  0
LINE
  5
627
330
1F
100
AcDbEntity
  8
0
  6
Continuous
 62
     7
370
    15
100
AcDbLine
 10
654.133194975
 20
223.8600725636
 30
0.0
 11
654.133194975
 21
226.8600730553
 31
0.0
  0
LINE
  5
628
330
1F
100
AcDbEntity
  8
0
  6
Continuous
 62
     7
370
    15
100
AcDbLine
 10
644.1331970612
 20
223.8600725636
 30
0.0
 11
654.133194975
 21
223.8600725636
 31
0.0
  0
LINE
  5
629
330
1F
100
AcDbEntity
  8
0
  6
Continuous
 62
     7
370
    15
100
AcDbLine
 10
644.1331970612
 20
226.8600730553
 30
0.0
 11
644.1331970612
 21
223.8600725636
 31
0.0
  0
LINE
  5
62A
330
1F
100
AcDbEntity
  8
0
  6
Continuous
 62
     7
370
    15
100
AcDbLine
 10
555.4431955436
 20
226.8600730553
 30
0.0
 11
644.1331970612
 21
226.8600730553
 31
0.0
  0
LINE
  5
62B
330
1F
100
AcDbEntity
  8
0
  6
Continuous
 62
     7
370
    15
100
AcDbLine
 10
555.4431955436
 20
228.8600715205
 30
0.0
 11
555.4431955436
 21
226.8600730553
 31
0.0
  0
LINE
  5
62C
330
1F
100
AcDbEntity
  8
0
  6
Continuous
 62
     7
370
    15
100
AcDbLine
 10
549.9431960391
 20
228.8600715205
 30
0.0
 11
555.4431955436
 21
228.8600715205
 31
0.0
  0
LINE
  5
62D
330
1F
100
AcDbEntity
  8
0
  6
Continuous
 62
     7
370
    15
100
AcDbLine
 10
549.9431960391
 20
256.8600723848
 30
0.0
 11
549.9431960391
 21
228.8600715205
 31
0.0
  0
LINE
  5
62E
330
1F
100
AcDbEntity
  8
0
  6
Continuous
 62
     7
370
    15
100
AcDbLine
 10
580.4431977788
 20
256.8600723848
 30
0.0
 11
549.9431960391
 21
256.8600723848
 31
0.0
  0
LINE
  5
62F
330
1F
100
AcDbEntity
  8
0
  6
Continuous
 62
     7
370
    15
100
AcDbLine
 10
580.4431977788
 20
241.8600727201
 30
0.0
 11
580.4431977788
 21
256.8600723848
 31
0.0
  0
LINE
  5
630
330
1F
100
AcDbEntity
  8
0
  6
Continuous
 62
     7
370
    15
100
AcDbLine
 10
583.4431964079
 20
241.8600727201
 30
0.0
 11
580.4431977788
 21
241.8600727201
 31
0.0
  0
LINE
  5
631
330
1F
100
AcDbEntity
  8
0
  6
Continuous
 62
     7
370
    15
100
AcDbLine
 10
583.4431964079
 20
256.8600723848
 30
0.0
 11
583.4431964079
 21
241.8600727201
 31
0.0
  0
LINE
  5
632
330
1F
100
AcDbEntity
  8
0
  6
Continuous
 62
     7
370
    15
100
AcDbLine
 10
714.6374147706
 20
353.3900254833
 30
0.0
 11
714.6374147706
 21
338.3900258186
 31
0.0
  0
LINE
  5
633
330
1F
100
AcDbEntity
  8
0
  6
Continuous
 62
     7
370
    15
100
AcDbLine
 10
611.1374136381
 20
368.390025148
 30
0.0
 11
580.6374114327
 21
368.390025148
 31
0.0
  0
LINE
  5
634
330
1F
100
AcDbEntity
  8
0
  6
Continuous
 62
     7
370
    15
100
AcDbLine
 10
611.1374136381
 20
353.3900254833
 30
0.0
 11
611.1374136381
 21
368.390025148
 31
0.0
  0
LINE
  5
635
330
1F
100
AcDbEntity
  8
0
  6
Continuous
 62
     7
370
    15
100
AcDbLine
 10
614.1374122672
 20
353.3900254833
 30
0.0
 11
611.1374136381
 21
353.3900254833
 31
0.0
  0
LINE
  5
636
330
1F
100
AcDbEntity
  8
0
  6
Continuous
 62
     7
370
    15
100
AcDbLine
 10
614.1374122672
 20
368.390025148
 30
0.0
 11
614.1374122672
 21
353.3900254833
 31
0.0
  0
LINE
  5
637
330
1F
100
AcDbEntity
  8
0
  6
Continuous
 62
     7
370
    15
100
AcDbLine
 10
644.6374144725
 20
368.390025148
 30
0.0
 11
614.1374122672
 21
368.390025148
 31
0.0
  0
LINE
  5
638
330
1F
100
AcDbEntity
  8
0
  6
Continuous
 62
     7
370
    15
100
AcDbLine
 10
644.6374144725
 20
353.3900254833
 30
0.0
 11
644.6374144725
 21
368.390025148
 31
0.0
  0
LINE
  5
639
330
1F
100
AcDbEntity
  8
0
  6
Continuous
 62
     7
370
    15
100
AcDbLine
 10
647.6374131016
 20
353.3900254833
 30
0.0
 11
644.6374144725
 21
353.3900254833
 31
0.0
  0
LINE
  5
63A
330
1F
100
AcDbEntity
  8
0
  6
Continuous
 62
     7
370
    15
100
AcDbLine
 10
647.6374131016
 20
368.390025148
 30
0.0
 11
647.6374131016
 21
353.3900254833
 31
0.0
  0
LINE
  5
63B
330
1F
100
AcDbEntity
  8
0
  6
Continuous
 62
     7
370
    15
100
AcDbLine
 10
678.1374078564
 20
368.390025148
 30
0.0
 11
647.6374131016
 21
368.390025148
 31
0.0
  0
LINE
  5
63C
330
1F
100
AcDbEntity
  8
0
  6
Continuous
 62
     7
370
    15
100
AcDbLine
 10
678.1374078564
 20
353.3900254833
 30
0.0
 11
678.1374078564
 21
368.390025148
 31
0.0
  0
LINE
  5
63D
330
1F
100
AcDbEntity
  8
0
  6
Continuous
 62
     7
370
    15
100
AcDbLine
 10
681.1374139361
 20
353.3900254833
 30
0.0
 11
678.1374078564
 21
353.3900254833
 31
0.0
  0
LINE
  5
63E
330
1F
100
AcDbEntity
  8
0
  6
Continuous
 62
     7
370
    15
100
AcDbLine
 10
681.1374139361
 20
368.390025148
 30
0.0
 11
681.1374139361
 21
353.3900254833
 31
0.0
  0
LINE
  5
63F
330
1F
100
AcDbEntity
  8
0
  6
Continuous
 62
     7
370
    15
100
AcDbLine
 10
711.6374086909
 20
368.390025148
 30
0.0
 11
681.1374139361
 21
368.390025148
 31
0.0
  0
LINE
  5
640
330
1F
100
AcDbEntity
  8
0
  6
Continuous
 62
     7
370
    15
100
AcDbLine
 10
711.6374086909
 20
353.3900254833
 30
0.0
 11
711.6374086909
 21
368.390025148
 31
0.0
  0
LINE
  5
641
330
1F
100
AcDbEntity
  8
0
  6
Continuous
 62
     7
370
    15
100
AcDbLine
 10
714.6374147706
 20
353.3900254833
 30
0.0
 11
711.6374086909
 21
353.3900254833
 31
0.0
  0
LINE
  5
642
330
1F
100
AcDbEntity
  8
0
  6
Continuous
 62
     7
370
    15
100
AcDbLine
 10
651.3274099998
 20
338.3900258186
 30
0.0
 11
714.6374147706
 21
338.3900258186
 31
0.0
  0
LINE
  5
643
330
1F
100
AcDbEntity
  8
0
  6
Continuous
 62
     7
370
    15
100
AcDbLine
 10
651.3274099998
 20
335.3900253268
 30
0.0
 11
651.3274099998
 21
338.3900258186
 31
0.0
  0
LINE
  5
644
330
1F
100
AcDbEntity
  8
0
  6
Continuous
 62
     7
370
    15
100
AcDbLine
 10
641.327412086
 20
335.3900253268
 30
0.0
 11
651.3274099998
 21
335.3900253268
 31
0.0
  0
LINE
  5
645
330
1F
100
AcDbEntity
  8
0
  6
Continuous
 62
     7
370
    15
100
AcDbLine
 10
641.327412086
 20
338.3900258186
 30
0.0
 11
641.327412086
 21
335.3900253268
 31
0.0
  0
LINE
  5
646
330
1F
100
AcDbEntity
  8
0
  6
Continuous
 62
     7
370
    15
100
AcDbLine
 10
552.6374105684
 20
338.3900258186
 30
0.0
 11
641.327412086
 21
338.3900258186
 31
0.0
  0
LINE
  5
647
330
1F
100
AcDbEntity
  8
0
  6
Continuous
 62
     7
370
    15
100
AcDbLine
 10
552.6374105684
 20
340.3900242838
 30
0.0
 11
552.6374105684
 21
338.3900258186
 31
0.0
  0
LINE
  5
648
330
1F
100
AcDbEntity
  8
0
  6
Continuous
 62
     7
370
    15
100
AcDbLine
 10
547.1374110639
 20
340.3900242838
 30
0.0
 11
552.6374105684
 21
340.3900242838
 31
0.0
  0
LINE
  5
649
330
1F
100
AcDbEntity
  8
0
  6
Continuous
 62
     7
370
    15
100
AcDbLine
 10
547.1374110639
 20
368.390025148
 30
0.0
 11
547.1374110639
 21
340.3900242838
 31
0.0
  0
LINE
  5
64A
330
1F
100
AcDbEntity
  8
0
  6
Continuous
 62
     7
370
    15
100
AcDbLine
 10
577.6374128036
 20
368.390025148
 30
0.0
 11
547.1374110639
 21
368.390025148
 31
0.0
  0
LINE
  5
64B
330
1F
100
AcDbEntity
  8
0
  6
Continuous
 62
     7
370
    15
100
AcDbLine
 10
577.6374128036
 20
353.3900254833
 30
0.0
 11
577.6374128036
 21
368.390025148
 31
0.0
  0
LINE
  5
64C
330
1F
100
AcDbEntity
  8
0
  6
Continuous
 62
     7
370
    15
100
AcDbLine
 10
580.6374114327
 20
353.3900254833
 30
0.0
 11
577.6374128036
 21
353.3900254833
 31
0.0
  0
LINE
  5
64D
330
1F
100
AcDbEntity
  8
0
  6
Continuous
 62
     7
370
    15
100
AcDbLine
 10
580.6374114327
 20
368.390025148
 30
0.0
 11
580.6374114327
 21
353.3900254833
 31
0.0
  0
LINE
  5
64E
330
1F
100
AcDbEntity
  8
0
  6
Continuous
 62
     7
370
    15
100
AcDbLine
 10
713.234522283
 20
425.6389885941
 30
0.0
 11
713.234522283
 21
410.6389889294
 31
0.0
  0
LINE
  5
64F
330
1F
100
AcDbEntity
  8
0
  6
Continuous
 62
     7
370
    15
100
AcDbLine
 10
609.7345211505
 20
440.6389882588
 30
0.0
 11
579.2345189451
 21
440.6389882588
 31
0.0
  0
LINE
  5
650
330
1F
100
AcDbEntity
  8
0
  6
Continuous
 62
     7
370
    15
100
AcDbLine
 10
609.7345211505
 20
425.6389885941
 30
0.0
 11
609.7345211505
 21
440.6389882588
 31
0.0
  0
LINE
  5
651
330
1F
100
AcDbEntity
  8
0
  6
Continuous
 62
     7
370
    15
100
AcDbLine
 10
612.7345197796
 20
425.6389885941
 30
0.0
 11
609.7345211505
 21
425.6389885941
 31
0.0
  0
LINE
  5
652
330
1F
100
AcDbEntity
  8
0
  6
Continuous
 62
     7
370
    15
100
AcDbLine
 10
612.7345197796
 20
440.6389882588
 30
0.0
 11
612.7345197796
 21
425.6389885941
 31
0.0
  0
LINE
  5
653
330
1F
100
AcDbEntity
  8
0
  6
Continuous
 62
     7
370
    15
100
AcDbLine
 10
643.234521985
 20
440.6389882588
 30
0.0
 11
612.7345197796
 21
440.6389882588
 31
0.0
  0
LINE
  5
654
330
1F
100
AcDbEntity
  8
0
  6
Continuous
 62
     7
370
    15
100
AcDbLine
 10
643.234521985
 20
425.6389885941
 30
0.0
 11
643.234521985
 21
440.6389882588
 31
0.0
  0
LINE
  5
655
330
1F
100
AcDbEntity
  8
0
  6
Continuous
 62
     7
370
    15
100
AcDbLine
 10
646.2345206141
 20
425.6389885941
 30
0.0
 11
643.234521985
 21
425.6389885941
 31
0.0
  0
LINE
  5
656
330
1F
100
AcDbEntity
  8
0
  6
Continuous
 62
     7
370
    15
100
AcDbLine
 10
646.2345206141
 20
440.6389882588
 30
0.0
 11
646.2345206141
 21
425.6389885941
 31
0.0
  0
LINE
  5
657
330
1F
100
AcDbEntity
  8
0
  6
Continuous
 62
     7
370
    15
100
AcDbLine
 10
676.7345153688
 20
440.6389882588
 30
0.0
 11
646.2345206141
 21
440.6389882588
 31
0.0
  0
LINE
  5
658
330
1F
100
AcDbEntity
  8
0
  6
Continuous
 62
     7
370
    15
100
AcDbLine
 10
676.7345153688
 20
425.6389885941
 30
0.0
 11
676.7345153688
 21
440.6389882588
 31
0.0
  0
LINE
  5
659
330
1F
100
AcDbEntity
  8
0
  6
Continuous
 62
     7
370
    15
100
AcDbLine
 10
679.7345214485
 20
425.6389885941
 30
0.0
 11
676.7345153688
 21
425.6389885941
 31
0.0
  0
LINE
  5
65A
330
1F
100
AcDbEntity
  8
0
  6
Continuous
 62
     7
370
    15
100
AcDbLine
 10
679.7345214485
 20
440.6389882588
 30
0.0
 11
679.7345214485
 21
425.6389885941
 31
0.0
  0
LINE
  5
65B
330
1F
100
AcDbEntity
  8
0
  6
Continuous
 62
     7
370
    15
100
AcDbLine
 10
710.2345162033
 20
440.6389882588
 30
0.0
 11
679.7345214485
 21
440.6389882588
 31
0.0
  0
LINE
  5
65C
330
1F
100
AcDbEntity
  8
0
  6
Continuous
 62
     7
370
    15
100
AcDbLine
 10
710.2345162033
 20
425.6389885941
 30
0.0
 11
710.2345162033
 21
440.6389882588
 31
0.0
  0
LINE
  5
65D
330
1F
100
AcDbEntity
  8
0
  6
Continuous
 62
     7
370
    15
100
AcDbLine
 10
713.234522283
 20
425.6389885941
 30
0.0
 11
710.2345162033
 21
425.6389885941
 31
0.0
  0
LINE
  5
65E
330
1F
100
AcDbEntity
  8
0
  6
Continuous
 62
     7
370
    15
100
AcDbLine
 10
649.9245175122
 20
410.6389889294
 30
0.0
 11
713.234522283
 21
410.6389889294
 31
0.0
  0
LINE
  5
65F
330
1F
100
AcDbEntity
  8
0
  6
Continuous
 62
     7
370
    15
100
AcDbLine
 10
649.9245175122
 20
407.6389884376
 30
0.0
 11
649.9245175122
 21
410.6389889294
 31
0.0
  0
LINE
  5
660
330
1F
100
AcDbEntity
  8
0
  6
Continuous
 62
     7
370
    15
100
AcDbLine
 10
639.9245195984
 20
407.6389884376
 30
0.0
 11
649.9245175122
 21
407.6389884376
 31
0.0
  0
LINE
  5
661
330
1F
100
AcDbEntity
  8
0
  6
Continuous
 62
     7
370
    15
100
AcDbLine
 10
639.9245195984
 20
410.6389889294
 30
0.0
 11
639.9245195984
 21
407.6389884376
 31
0.0
  0
LINE
  5
662
330
1F
100
AcDbEntity
  8
0
  6
Continuous
 62
     7
370
    15
100
AcDbLine
 10
551.2345180809
 20
410.6389889294
 30
0.0
 11
639.9245195984
 21
410.6389889294
 31
0.0
  0
LINE
  5
663
330
1F
100
AcDbEntity
  8
0
  6
Continuous
 62
     7
370
    15
100
AcDbLine
 10
551.2345180809
 20
412.6389873946
 30
0.0
 11
551.2345180809
 21
410.6389889294
 31
0.0
  0
LINE
  5
664
330
1F
100
AcDbEntity
  8
0
  6
Continuous
 62
     7
370
    15
100
AcDbLine
 10
545.7345185763
 20
412.6389873946
 30
0.0
 11
551.2345180809
 21
412.6389873946
 31
0.0
  0
LINE
  5
665
330
1F
100
AcDbEntity
  8
0
  6
Continuous
 62
     7
370
    15
100
AcDbLine
 10
545.7345185763
 20
440.6389882588
 30
0.0
 11
545.7345185763
 21
412.6389873946
 31
0.0
  0
LINE
  5
666
330
1F
100
AcDbEntity
  8
0
  6
Continuous
 62
     7
370
    15
100
AcDbLine
 10
576.234520316
 20
440.6389882588
 30
0.0
 11
545.7345185763
 21
440.6389882588
 31
0.0
  0
LINE
  5
667
330
1F
100
AcDbEntity
  8
0
  6
Continuous
 62
     7
370
    15
100
AcDbLine
 10
576.234520316
 20
425.6389885941
 30
0.0
 11
576.234520316
 21
440.6389882588
 31
0.0
  0
LINE
  5
668
330
1F
100
AcDbEntity
  8
0
  6
Continuous
 62
     7
370
    15
100
AcDbLine
 10
579.2345189451
 20
425.6389885941
 30
0.0
 11
576.234520316
 21
425.6389885941
 31
0.0
  0
LINE
  5
669
330
1F
100
AcDbEntity
  8
0
  6
Continuous
 62
     7
370
    15
100
AcDbLine
 10
579.2345189451
 20
440.6389882588
 30
0.0
 11
579.2345189451
 21
425.6389885941
 31
0.0
  0
LINE
  5
66A
330
1F
100
AcDbEntity
  8
0
  6
Continuous
 62
     7
370
    15
100
AcDbLine
 10
718.1446459895
 20
199.7732980924
 30
0.0
 11
718.1446459895
 21
184.7732984277
 31
0.0
  0
LINE
  5
66B
330
1F
100
AcDbEntity
  8
0
  6
Continuous
 62
     7
370
    15
100
AcDbLine
 10
614.6446448571
 20
214.7732977571
 30
0.0
 11
584.1446426517
 21
214.7732977571
 31
0.0
  0
LINE
  5
66C
330
1F
100
AcDbEntity
  8
0
  6
Continuous
 62
     7
370
    15
100
AcDbLine
 10
614.6446448571
 20
199.7732980924
 30
0.0
 11
614.6446448571
 21
214.7732977571
 31
0.0
  0
LINE
  5
66D
330
1F
100
AcDbEntity
  8
0
  6
Continuous
 62
     7
370
    15
100
AcDbLine
 10
617.6446434861
 20
199.7732980924
 30
0.0
 11
614.6446448571
 21
199.7732980924
 31
0.0
  0
LINE
  5
66E
330
1F
100
AcDbEntity
  8
0
  6
Continuous
 62
     7
370
    15
100
AcDbLine
 10
617.6446434861
 20
214.7732977571
 30
0.0
 11
617.6446434861
 21
199.7732980924
 31
0.0
  0
LINE
  5
66F
330
1F
100
AcDbEntity
  8
0
  6
Continuous
 62
     7
370
    15
100
AcDbLine
 10
648.1446456915
 20
214.7732977571
 30
0.0
 11
617.6446434861
 21
214.7732977571
 31
0.0
  0
LINE
  5
670
330
1F
100
AcDbEntity
  8
0
  6
Continuous
 62
     7
370
    15
100
AcDbLine
 10
648.1446456915
 20
199.7732980924
 30
0.0
 11
648.1446456915
 21
214.7732977571
 31
0.0
  0
LINE
  5
671
330
1F
100
AcDbEntity
  8
0
  6
Continuous
 62
     7
370
    15
100
AcDbLine
 10
651.1446443206
 20
199.7732980924
 30
0.0
 11
648.1446456915
 21
199.7732980924
 31
0.0
  0
LINE
  5
672
330
1F
100
AcDbEntity
  8
0
  6
Continuous
 62
     7
370
    15
100
AcDbLine
 10
651.1446443206
 20
214.7732977571
 30
0.0
 11
651.1446443206
 21
199.7732980924
 31
0.0
  0
LINE
  5
673
330
1F
100
AcDbEntity
  8
0
  6
Continuous
 62
     7
370
    15
100
AcDbLine
 10
681.6446390754
 20
214.7732977571
 30
0.0
 11
651.1446443206
 21
214.7732977571
 31
0.0
  0
LINE
  5
674
330
1F
100
AcDbEntity
  8
0
  6
Continuous
 62
     7
370
    15
100
AcDbLine
 10
681.6446390754
 20
199.7732980924
 30
0.0
 11
681.6446390754
 21
214.7732977571
 31
0.0
  0
LINE
  5
675
330
1F
100
AcDbEntity
  8
0
  6
Continuous
 62
     7
370
    15
100
AcDbLine
 10
684.6446451551
 20
199.7732980924
 30
0.0
 11
681.6446390754
 21
199.7732980924
 31
0.0
  0
LINE
  5
676
330
1F
100
AcDbEntity
  8
0
  6
Continuous
 62
     7
370
    15
100
AcDbLine
 10
684.6446451551
 20
214.7732977571
 30
0.0
 11
684.6446451551
 21
199.7732980924
 31
0.0
  0
LINE
  5
677
330
1F
100
AcDbEntity
  8
0
  6
Continuous
 62
     7
370
    15
100
AcDbLine
 10
715.1446399099
 20
214.7732977571
 30
0.0
 11
684.6446451551
 21
214.7732977571
 31
0.0
  0
LINE
  5
678
330
1F
100
AcDbEntity
  8
0
  6
Continuous
 62
     7
370
    15
100
AcDbLine
 10
715.1446399099
 20
199.7732980924
 30
0.0
 11
715.1446399099
 21
214.7732977571
 31
0.0
  0
LINE
  5
679
330
1F
100
AcDbEntity
  8
0
  6
Continuous
 62
     7
370
    15
100
AcDbLine
 10
718.1446459895
 20
199.7732980924
 30
0.0
 11
715.1446399099
 21
199.7732980924
 31
0.0
  0
LINE
  5
67A
330
1F
100
AcDbEntity
  8
0
  6
Continuous
 62
     7
370
    15
100
AcDbLine
 10
654.8346412188
 20
184.7732984277
 30
0.0
 11
718.1446459895
 21
184.7732984277
 31
0.0
  0
LINE
  5
67B
330
1F
100
AcDbEntity
  8
0
  6
Continuous
 62
     7
370
    15
100
AcDbLine
 10
654.8346412188
 20
181.7732979359
 30
0.0
 11
654.8346412188
 21
184.7732984277
 31
0.0
  0
LINE
  5
67C
330
1F
100
AcDbEntity
  8
0
  6
Continuous
 62
     7
370
    15
100
AcDbLine
 10
644.8346433049
 20
181.7732979359
 30
0.0
 11
654.8346412188
 21
181.7732979359
 31
0.0
  0
LINE
  5
67D
330
1F
100
AcDbEntity
  8
0
  6
Continuous
 62
     7
370
    15
100
AcDbLine
 10
644.8346433049
 20
184.7732984277
 30
0.0
 11
644.8346433049
 21
181.7732979359
 31
0.0
  0
LINE
  5
67E
330
1F
100
AcDbEntity
  8
0
  6
Continuous
 62
     7
370
    15
100
AcDbLine
 10
556.1446417874
 20
184.7732984277
 30
0.0
 11
644.8346433049
 21
184.7732984277
 31
0.0
  0
LINE
  5
67F
330
1F
100
AcDbEntity
  8
0
  6
Continuous
 62
     7
370
    15
100
AcDbLine
 10
556.1446417874
 20
186.7732968929
 30
0.0
 11
556.1446417874
 21
184.7732984277
 31
0.0
  0
LINE
  5
680
330
1F
100
AcDbEntity
  8
0
  6
Continuous
 62
     7
370
    15
100
AcDbLine
 10
550.6446422829
 20
186.7732968929
 30
0.0
 11
556.1446417874
 21
186.7732968929
 31
0.0
  0
LINE
  5
681
330
1F
100
AcDbEntity
  8
0
  6
Continuous
 62
     7
370
    15
100
AcDbLine
 10
550.6446422829
 20
214.7732977571
 30
0.0
 11
550.6446422829
 21
186.7732968929
 31
0.0
  0
LINE
  5
682
330
1F
100
AcDbEntity
  8
0
  6
Continuous
 62
     7
370
    15
100
AcDbLine
 10
581.1446440226
 20
214.7732977571
 30
0.0
 11
550.6446422829
 21
214.7732977571
 31
0.0
  0
LINE
  5
683
330
1F
100
AcDbEntity
  8
0
  6
Continuous
 62
     7
370
    15
100
AcDbLine
 10
581.1446440226
 20
199.7732980924
 30
0.0
 11
581.1446440226
 21
214.7732977571
 31
0.0
  0
LINE
  5
684
330
1F
100
AcDbEntity
  8
0
  6
Continuous
 62
     7
370
    15
100
AcDbLine
 10
584.1446426517
 20
199.7732980924
 30
0.0
 11
581.1446440226
 21
199.7732980924
 31
0.0
  0
LINE
  5
685
330
1F
100
AcDbEntity
  8
0
  6
Continuous
 62
     7
370
    15
100
AcDbLine
 10
584.1446426517
 20
214.7732977571
 30
0.0
 11
584.1446426517
 21
199.7732980924
 31
0.0
  0
LINE
  5
686
330
1F
100
AcDbEntity
  8
0
  6
Continuous
 62
     7
370
    15
100
AcDbLine
 10
617.1363868832
 20
140.8518136137
 30
0.0
 11
617.1363868832
 21
125.851813949
 31
0.0
  0
LINE
  5
687
330
1F
100
AcDbEntity
  8
0
  6
Continuous
 62
     7
370
    15
100
AcDbLine
 10
513.6363857507
 20
155.8518132784
 30
0.0
 11
483.1363835453
 21
155.8518132784
 31
0.0
  0
LINE
  5
688
330
1F
100
AcDbEntity
  8
0
  6
Continuous
 62
     7
370
    15
100
AcDbLine
 10
513.6363857507
 20
140.8518136137
 30
0.0
 11
513.6363857507
 21
155.8518132784
 31
0.0
  0
LINE
  5
689
330
1F
100
AcDbEntity
  8
0
  6
Continuous
 62
     7
370
    15
100
AcDbLine
 10
516.6363843798
 20
140.8518136137
 30
0.0
 11
513.6363857507
 21
140.8518136137
 31
0.0
  0
LINE
  5
68A
330
1F
100
AcDbEntity
  8
0
  6
Continuous
 62
     7
370
    15
100
AcDbLine
 10
516.6363843798
 20
155.8518132784
 30
0.0
 11
516.6363843798
 21
140.8518136137
 31
0.0
  0
LINE
  5
68B
330
1F
100
AcDbEntity
  8
0
  6
Continuous
 62
     7
370
    15
100
AcDbLine
 10
547.1363865852
 20
155.8518132784
 30
0.0
 11
516.6363843798
 21
155.8518132784
 31
0.0
  0
LINE
  5
68C
330
1F
100
AcDbEntity
  8
0
  6
Continuous
 62
     7
370
    15
100
AcDbLine
 10
547.1363865852
 20
140.8518136137
 30
0.0
 11
547.1363865852
 21
155.8518132784
 31
0.0
  0
LINE
  5
68D
330
1F
100
AcDbEntity
  8
0
  6
Continuous
 62
     7
370
    15
100
AcDbLine
 10
550.1363852143
 20
140.8518136137
 30
0.0
 11
547.1363865852
 21
140.8518136137
 31
0.0
  0
LINE
  5
68E
330
1F
100
AcDbEntity
  8
0
  6
Continuous
 62
     7
370
    15
100
AcDbLine
 10
550.1363852143
 20
155.8518132784
 30
0.0
 11
550.1363852143
 21
140.8518136137
 31
0.0
  0
LINE
  5
68F
330
1F
100
AcDbEntity
  8
0
  6
Continuous
 62
     7
370
    15
100
AcDbLine
 10
580.6363799691
 20
155.8518132784
 30
0.0
 11
550.1363852143
 21
155.8518132784
 31
0.0
  0
LINE
  5
690
330
1F
100
AcDbEntity
  8
0
  6
Continuous
 62
     7
370
    15
100
AcDbLine
 10
580.6363799691
 20
140.8518136137
 30
0.0
 11
580.6363799691
 21
155.8518132784
 31
0.0
  0
LINE
  5
691
330
1F
100
AcDbEntity
  8
0
  6
Continuous
 62
     7
370
    15
100
AcDbLine
 10
583.6363860487
 20
140.8518136137
 30
0.0
 11
580.6363799691
 21
140.8518136137
 31
0.0
  0
LINE
  5
692
330
1F
100
AcDbEntity
  8
0
  6
Continuous
 62
     7
370
    15
100
AcDbLine
 10
583.6363860487
 20
155.8518132784
 30
0.0
 11
583.6363860487
 21
140.8518136137
 31
0.0
  0
LINE
  5
693
330
1F
100
AcDbEntity
  8
0
  6
Continuous
 62
     7
370
    15
100
AcDbLine
 10
614.1363808035
 20
155.8518132784
 30
0.0
 11
583.6363860487
 21
155.8518132784
 31
0.0
  0
LINE
  5
694
330
1F
100
AcDbEntity
  8
0
  6
Continuous
 62
     7
370
    15
100
AcDbLine
 10
614.1363808035
 20
140.8518136137
 30
0.0
 11
614.1363808035
 21
155.8518132784
 31
0.0
  0
LINE
  5
695
330
1F
100
AcDbEntity
  8
0
  6
Continuous
 62
     7
370
    15
100
AcDbLine
 10
617.1363868832
 20
140.8518136137
 30
0.0
 11
614.1363808035
 21
140.8518136137
 31
0.0
  0
LINE
  5
696
330
1F
100
AcDbEntity
  8
0
  6
Continuous
 62
     7
370
    15
100
AcDbLine
 10
553.8263821124
 20
125.851813949
 30
0.0
 11
617.1363868832
 21
125.851813949
 31
0.0
  0
LINE
  5
697
330
1F
100
AcDbEntity
  8
0
  6
Continuous
 62
     7
370
    15
100
AcDbLine
 10
553.8263821124
 20
122.8518134572
 30
0.0
 11
553.8263821124
 21
125.851813949
 31
0.0
  0
LINE
  5
698
330
1F
100
AcDbEntity
  8
0
  6
Continuous
 62
     7
370
    15
100
AcDbLine
 10
543.8263841986
 20
122.8518134572
 30
0.0
 11
553.8263821124
 21
122.8518134572
 31
0.0
  0
LINE
  5
699
330
1F
100
AcDbEntity
  8
0
  6
Continuous
 62
     7
370
    15
100
AcDbLine
 10
543.8263841986
 20
125.851813949
 30
0.0
 11
543.8263841986
 21
122.8518134572
 31
0.0
  0
LINE
  5
69A
330
1F
100
AcDbEntity
  8
0
  6
Continuous
 62
     7
370
    15
100
AcDbLine
 10
455.1363826811
 20
125.851813949
 30
0.0
 11
543.8263841986
 21
125.851813949
 31
0.0
  0
LINE
  5
69B
330
1F
100
AcDbEntity
  8
0
  6
Continuous
 62
     7
370
    15
100
AcDbLine
 10
455.1363826811
 20
127.8518124142
 30
0.0
 11
455.1363826811
 21
125.851813949
 31
0.0
  0
LINE
  5
69C
330
1F
100
AcDbEntity
  8
0
  6
Continuous
 62
     7
370
    15
100
AcDbLine
 10
449.6363831765
 20
127.8518124142
 30
0.0
 11
455.1363826811
 21
127.8518124142
 31
0.0
  0
LINE
  5
69D
330
1F
100
AcDbEntity
  8
0
  6
Continuous
 62
     7
370
    15
100
AcDbLine
 10
449.6363831765
 20
155.8518132784
 30
0.0
 11
449.6363831765
 21
127.8518124142
 31
0.0
  0
LINE
  5
69E
330
1F
100
AcDbEntity
  8
0
  6
Continuous
 62
     7
370
    15
100
AcDbLine
 10
480.1363849162
 20
155.8518132784
 30
0.0
 11
449.6363831765
 21
155.8518132784
 31
0.0
  0
LINE
  5
69F
330
1F
100
AcDbEntity
  8
0
  6
Continuous
 62
     7
370
    15
100
AcDbLine
 10
480.1363849162
 20
140.8518136137
 30
0.0
 11
480.1363849162
 21
155.8518132784
 31
0.0
  0
LINE
  5
6A0
330
1F
100
AcDbEntity
  8
0
  6
Continuous
 62
     7
370
    15
100
AcDbLine
 10
483.1363835453
 20
140.8518136137
 30
0.0
 11
480.1363849162
 21
140.8518136137
 31
0.0
  0
LINE
  5
6A1
330
1F
100
AcDbEntity
  8
0
  6
Continuous
 62
     7
370
    15
100
AcDbLine
 10
483.1363835453
 20
155.8518132784
 30
0.0
 11
483.1363835453
 21
140.8518136137
 31
0.0
  0
LINE
  5
6A2
330
1F
100
AcDbEntity
  8
0
  6
Continuous
 62
     7
370
    15
100
AcDbLine
 10
613.6291556642
 20
104.3766089364
 30
0.0
 11
613.6291556642
 21
89.3766092717
 31
0.0
  0
LINE
  5
6A3
330
1F
100
AcDbEntity
  8
0
  6
Continuous
 62
     7
370
    15
100
AcDbLine
 10
510.1291545317
 20
119.3766086011
 30
0.0
 11
479.6291523264
 21
119.3766086011
 31
0.0
  0
LINE
  5
6A4
330
1F
100
AcDbEntity
  8
0
  6
Continuous
 62
     7
370
    15
100
AcDbLine
 10
510.1291545317
 20
104.3766089364
 30
0.0
 11
510.1291545317
 21
119.3766086011
 31
0.0
  0
LINE
  5
6A5
330
1F
100
AcDbEntity
  8
0
  6
Continuous
 62
     7
370
    15
100
AcDbLine
 10
513.1291531608
 20
104.3766089364
 30
0.0
 11
510.1291545317
 21
104.3766089364
 31
0.0
  0
LINE
  5
6A6
330
1F
100
AcDbEntity
  8
0
  6
Continuous
 62
     7
370
    15
100
AcDbLine
 10
513.1291531608
 20
119.3766086011
 30
0.0
 11
513.1291531608
 21
104.3766089364
 31
0.0
  0
LINE
  5
6A7
330
1F
100
AcDbEntity
  8
0
  6
Continuous
 62
     7
370
    15
100
AcDbLine
 10
543.6291553662
 20
119.3766086011
 30
0.0
 11
513.1291531608
 21
119.3766086011
 31
0.0
  0
LINE
  5
6A8
330
1F
100
AcDbEntity
  8
0
  6
Continuous
 62
     7
370
    15
100
AcDbLine
 10
543.6291553662
 20
104.3766089364
 30
0.0
 11
543.6291553662
 21
119.3766086011
 31
0.0
  0
LINE
  5
6A9
330
1F
100
AcDbEntity
  8
0
  6
Continuous
 62
     7
370
    15
100
AcDbLine
 10
546.6291539953
 20
104.3766089364
 30
0.0
 11
543.6291553662
 21
104.3766089364
 31
0.0
  0
LINE
  5
6AA
330
1F
100
AcDbEntity
  8
0
  6
Continuous
 62
     7
370
    15
100
AcDbLine
 10
546.6291539953
 20
119.3766086011
 30
0.0
 11
546.6291539953
 21
104.3766089364
 31
0.0
  0
LINE
  5
6AB
330
1F
100
AcDbEntity
  8
0
  6
Continuous
 62
     7
370
    15
100
AcDbLine
 10
577.1291487501
 20
119.3766086011
 30
0.0
 11
546.6291539953
 21
119.3766086011
 31
0.0
  0
LINE
  5
6AC
330
1F
100
AcDbEntity
  8
0
  6
Continuous
 62
     7
370
    15
100
AcDbLine
 10
577.1291487501
 20
104.3766089364
 30
0.0
 11
577.1291487501
 21
119.3766086011
 31
0.0
  0
LINE
  5
6AD
330
1F
100
AcDbEntity
  8
0
  6
Continuous
 62
     7
370
    15
100
AcDbLine
 10
580.1291548298
 20
104.3766089364
 30
0.0
 11
577.1291487501
 21
104.3766089364
 31
0.0
  0
LINE
  5
6AE
330
1F
100
AcDbEntity
  8
0
  6
Continuous
 62
     7
370
    15
100
AcDbLine
 10
580.1291548298
 20
119.3766086011
 30
0.0
 11
580.1291548298
 21
104.3766089364
 31
0.0
  0
LINE
  5
6AF
330
1F
100
AcDbEntity
  8
0
  6
Continuous
 62
     7
370
    15
100
AcDbLine
 10
610.6291495846
 20
119.3766086011
 30
0.0
 11
580.1291548298
 21
119.3766086011
 31
0.0
  0
LINE
  5
6B0
330
1F
100
AcDbEntity
  8
0
  6
Continuous
 62
     7
370
    15
100
AcDbLine
 10
610.6291495846
 20
104.3766089364
 30
0.0
 11
610.6291495846
 21
119.3766086011
 31
0.0
  0
LINE
  5
6B1
330
1F
100
AcDbEntity
  8
0
  6
Continuous
 62
     7
370
    15
100
AcDbLine
 10
613.6291556642
 20
104.3766089364
 30
0.0
 11
610.6291495846
 21
104.3766089364
 31
0.0
  0
LINE
  5
6B2
330
1F
100
AcDbEntity
  8
0
  6
Continuous
 62
     7
370
    15
100
AcDbLine
 10
550.3191508935
 20
89.3766092717
 30
0.0
 11
613.6291556642
 21
89.3766092717
 31
0.0
  0
LINE
  5
6B3
330
1F
100
AcDbEntity
  8
0
  6
Continuous
 62
     7
370
    15
100
AcDbLine
 10
550.3191508935
 20
86.37660878
 30
0.0
 11
550.3191508935
 21
89.3766092717
 31
0.0
  0
LINE
  5
6B4
330
1F
100
AcDbEntity
  8
0
  6
Continuous
 62
     7
370
    15
100
AcDbLine
 10
540.3191529796
 20
86.37660878
 30
0.0
 11
550.3191508935
 21
86.37660878
 31
0.0
  0
LINE
  5
6B5
330
1F
100
AcDbEntity
  8
0
  6
Continuous
 62
     7
370
    15
100
AcDbLine
 10
540.3191529796
 20
89.3766092717
 30
0.0
 11
540.3191529796
 21
86.37660878
 31
0.0
  0
LINE
  5
6B6
330
1F
100
AcDbEntity
  8
0
  6
Continuous
 62
     7
370
    15
100
AcDbLine
 10
451.6291514621
 20
89.3766092717
 30
0.0
 11
540.3191529796
 21
89.3766092717
 31
0.0
  0
LINE
  5
6B7
330
1F
100
AcDbEntity
  8
0
  6
Continuous
 62
     7
370
    15
100
AcDbLine
 10
451.6291514621
 20
91.3766077369
 30
0.0
 11
451.6291514621
 21
89.3766092717
 31
0.0
  0
LINE
  5
6B8
330
1F
100
AcDbEntity
  8
0
  6
Continuous
 62
     7
370
    15
100
AcDbLine
 10
446.1291519576
 20
91.3766077369
 30
0.0
 11
451.6291514621
 21
91.3766077369
 31
0.0
  0
LINE
  5
6B9
330
1F
100
AcDbEntity
  8
0
  6
Continuous
 62
     7
370
    15
100
AcDbLine
 10
446.1291519576
 20
119.3766086011
 30
0.0
 11
446.1291519576
 21
91.3766077369
 31
0.0
  0
LINE
  5
6BA
330
1F
100
AcDbEntity
  8
0
  6
Continuous
 62
     7
370
    15
100
AcDbLine
 10
476.6291536973
 20
119.3766086011
 30
0.0
 11
446.1291519576
 21
119.3766086011
 31
0.0
  0
LINE
  5
6BB
330
1F
100
AcDbEntity
  8
0
  6
Continuous
 62
     7
370
    15
100
AcDbLine
 10
476.6291536973
 20
104.3766089364
 30
0.0
 11
476.6291536973
 21
119.3766086011
 31
0.0
  0
LINE
  5
6BC
330
1F
100
AcDbEntity
  8
0
  6
Continuous
 62
     7
370
    15
100
AcDbLine
 10
479.6291523264
 20
104.3766089364
 30
0.0
 11
476.6291536973
 21
104.3766089364
 31
0.0
  0
LINE
  5
6BD
330
1F
100
AcDbEntity
  8
0
  6
Continuous
 62
     7
370
    15
100
AcDbLine
 10
479.6291523264
 20
119.3766086011
 30
0.0
 11
479.6291523264
 21
104.3766089364
 31
0.0
  0
LINE
  5
6BE
330
1F
100
AcDbEntity
  8
0
  6
Continuous
 62
     7
370
    15
100
AcDbLine
 10
594.6901070818
 20
29.3218608505
 30
0.0
 11
594.6901070818
 21
14.3218611857
 31
0.0
  0
LINE
  5
6BF
330
1F
100
AcDbEntity
  8
0
  6
Continuous
 62
     7
370
    15
100
AcDbLine
 10
491.1901059493
 20
44.3218605152
 30
0.0
 11
460.6901037439
 21
44.3218605152
 31
0.0
  0
LINE
  5
6C0
330
1F
100
AcDbEntity
  8
0
  6
Continuous
 62
     7
370
    15
100
AcDbLine
 10
491.1901059493
 20
29.3218608505
 30
0.0
 11
491.1901059493
 21
44.3218605152
 31
0.0
  0
LINE
  5
6C1
330
1F
100
AcDbEntity
  8
0
  6
Continuous
 62
     7
370
    15
100
AcDbLine
 10
494.1901045784
 20
29.3218608505
 30
0.0
 11
491.1901059493
 21
29.3218608505
 31
0.0
  0
LINE
  5
6C2
330
1F
100
AcDbEntity
  8
0
  6
Continuous
 62
     7
370
    15
100
AcDbLine
 10
494.1901045784
 20
44.3218605152
 30
0.0
 11
494.1901045784
 21
29.3218608505
 31
0.0
  0
LINE
  5
6C3
330
1F
100
AcDbEntity
  8
0
  6
Continuous
 62
     7
370
    15
100
AcDbLine
 10
524.6901067838
 20
44.3218605152
 30
0.0
 11
494.1901045784
 21
44.3218605152
 31
0.0
  0
LINE
  5
6C4
330
1F
100
AcDbEntity
  8
0
  6
Continuous
 62
     7
370
    15
100
AcDbLine
 10
524.6901067838
 20
29.3218608505
 30
0.0
 11
524.6901067838
 21
44.3218605152
 31
0.0
  0
LINE
  5
6C5
330
1F
100
AcDbEntity
  8
0
  6
Continuous
 62
     7
370
    15
100
AcDbLine
 10
527.6901054129
 20
29.3218608505
 30
0.0
 11
524.6901067838
 21
29.3218608505
 31
0.0
  0
LINE
  5
6C6
330
1F
100
AcDbEntity
  8
0
  6
Continuous
 62
     7
370
    15
100
AcDbLine
 10
527.6901054129
 20
44.3218605152
 30
0.0
 11
527.6901054129
 21
29.3218608505
 31
0.0
  0
LINE
  5
6C7
330
1F
100
AcDbEntity
  8
0
  6
Continuous
 62
     7
370
    15
100
AcDbLine
 10
558.1901001676
 20
44.3218605152
 30
0.0
 11
527.6901054129
 21
44.3218605152
 31
0.0
  0
LINE
  5
6C8
330
1F
100
AcDbEntity
  8
0
  6
Continuous
 62
     7
370
    15
100
AcDbLine
 10
558.1901001676
 20
29.3218608505
 30
0.0
 11
558.1901001676
 21
44.3218605152
 31
0.0
  0
LINE
  5
6C9
330
1F
100
AcDbEntity
  8
0
  6
Continuous
 62
     7
370
    15
100
AcDbLine
 10
561.1901062473
 20
29.3218608505
 30
0.0
 11
558.1901001676
 21
29.3218608505
 31
0.0
  0
LINE
  5
6CA
330
1F
100
AcDbEntity
  8
0
  6
Continuous
 62
     7
370
    15
100
AcDbLine
 10
561.1901062473
 20
44.3218605152
 30
0.0
 11
561.1901062473
 21
29.3218608505
 31
0.0
  0
LINE
  5
6CB
330
1F
100
AcDbEntity
  8
0
  6
Continuous
 62
     7
370
    15
100
AcDbLine
 10
591.6901010021
 20
44.3218605152
 30
0.0
 11
561.1901062473
 21
44.3218605152
 31
0.0
  0
LINE
  5
6CC
330
1F
100
AcDbEntity
  8
0
  6
Continuous
 62
     7
370
    15
100
AcDbLine
 10
591.6901010021
 20
29.3218608505
 30
0.0
 11
591.6901010021
 21
44.3218605152
 31
0.0
  0
LINE
  5
6CD
330
1F
100
AcDbEntity
  8
0
  6
Continuous
 62
     7
370
    15
100
AcDbLine
 10
594.6901070818
 20
29.3218608505
 30
0.0
 11
591.6901010021
 21
29.3218608505
 31
0.0
  0
LINE
  5
6CE
330
1F
100
AcDbEntity
  8
0
  6
Continuous
 62
     7
370
    15
100
AcDbLine
 10
531.380102311
 20
14.3218611857
 30
0.0
 11
594.6901070818
 21
14.3218611857
 31
0.0
  0
LINE
  5
6CF
330
1F
100
AcDbEntity
  8
0
  6
Continuous
 62
     7
370
    15
100
AcDbLine
 10
531.380102311
 20
11.321860694
 30
0.0
 11
531.380102311
 21
14.3218611857
 31
0.0
  0
LINE
  5
6D0
330
1F
100
AcDbEntity
  8
0
  6
Continuous
 62
     7
370
    15
100
AcDbLine
 10
521.3801043972
 20
11.321860694
 30
0.0
 11
531.380102311
 21
11.321860694
 31
0.0
  0
LINE
  5
6D1
330
1F
100
AcDbEntity
  8
0
  6
Continuous
 62
     7
370
    15
100
AcDbLine
 10
521.3801043972
 20
14.3218611857
 30
0.0
 11
521.3801043972
 21
11.321860694
 31
0.0
  0
LINE
  5
6D2
330
1F
100
AcDbEntity
  8
0
  6
Continuous
 62
     7
370
    15
100
AcDbLine
 10
432.6901028797
 20
14.3218611857
 30
0.0
 11
521.3801043972
 21
14.3218611857
 31
0.0
  0
LINE
  5
6D3
330
1F
100
AcDbEntity
  8
0
  6
Continuous
 62
     7
370
    15
100
AcDbLine
 10
432.6901028797
 20
16.3218596509
 30
0.0
 11
432.6901028797
 21
14.3218611857
 31
0.0
  0
LINE
  5
6D4
330
1F
100
AcDbEntity
  8
0
  6
Continuous
 62
     7
370
    15
100
AcDbLine
 10
427.1901033751
 20
16.3218596509
 30
0.0
 11
432.6901028797
 21
16.3218596509
 31
0.0
  0
LINE
  5
6D5
330
1F
100
AcDbEntity
  8
0
  6
Continuous
 62
     7
370
    15
100
AcDbLine
 10
427.1901033751
 20
44.3218605152
 30
0.0
 11
427.1901033751
 21
16.3218596509
 31
0.0
  0
LINE
  5
6D6
330
1F
100
AcDbEntity
  8
0
  6
Continuous
 62
     7
370
    15
100
AcDbLine
 10
457.6901051148
 20
44.3218605152
 30
0.0
 11
427.1901033751
 21
44.3218605152
 31
0.0
  0
LINE
  5
6D7
330
1F
100
AcDbEntity
  8
0
  6
Continuous
 62
     7
370
    15
100
AcDbLine
 10
457.6901051148
 20
29.3218608505
 30
0.0
 11
457.6901051148
 21
44.3218605152
 31
0.0
  0
LINE
  5
6D8
330
1F
100
AcDbEntity
  8
0
  6
Continuous
 62
     7
370
    15
100
AcDbLine
 10
460.6901037439
 20
29.3218608505
 30
0.0
 11
457.6901051148
 21
29.3218608505
 31
0.0
  0
LINE
  5
6D9
330
1F
100
AcDbEntity
  8
0
  6
Continuous
 62
     7
370
    15
100
AcDbLine
 10
460.6901037439
 20
44.3218605152
 30
0.0
 11
460.6901037439
 21
29.3218608505
 31
0.0
  0
ENDSEC
  0
SECTION
  2
OBJECTS
  0
DICTIONARY
  5
C
330
0
100
AcDbDictionary
281
     1
  3
ACAD_GROUP
350
D
  3
ACAD_LAYOUT
350
1A
  3
ACAD_MLINESTYLE
350
17
  3
ACAD_PLOTSETTINGS
350
19
  3
ACAD_PLOTSTYLENAME
350
E
  3
ACAD_SCALELIST
350
47
  0
DICTIONARY
  5
D
102
{ACAD_REACTORS
330
C
102
}
330
C
100
AcDbDictionary
281
     1
  0
DICTIONARY
  5
1A
102
{ACAD_REACTORS
330
C
102
}
330
C
100
AcDbDictionary
281
     1
  3
Layout1
350
1E
  3
Layout2
350
26
  3
Model
350
22
  0
DICTIONARY
  5
17
102
{ACAD_REACTORS
330
C
102
}
330
C
100
AcDbDictionary
281
     1
  3
Standard
350
18
  0
DICTIONARY
  5
19
102
{ACAD_REACTORS
330
C
102
}
330
C
100
AcDbDictionary
281
     1
  0
ACDBDICTIONARYWDFLT
  5
E
102
{ACAD_REACTORS
330
C
102
}
330
C
100
AcDbDictionary
281
     1
  3
Normal
350
F
100
AcDbDictionaryWithDefault
340
F
  0
DICTIONARY
  5
47
102
{ACAD_REACTORS
330
C
102
}
330
C
100
AcDbDictionary
281
     1
  3
A0
350
48
  3
A1
350
49
  3
A2
350
4A
  3
A3
350
4B
  3
A4
350
4C
  3
A5
350
4D
  3
A6
350
4E
  3
A7
350
4F
  3
A8
350
50
  3
A9
350
51
  3
B0
350
52
  3
B1
350
53
  3
B2
350
54
  3
B3
350
55
  3
B4
350
56
  3
B5
350
57
  3
B6
350
58
  3
B7
350
59
  3
B8
350
5A
  3
B9
350
5B
  3
C0
350
5C
  3
C1
350
5D
  3
C2
350
5E
  3
C3
350
5F
  3
C4
350
60
  3
C5
350
61
  3
C6
350
62
  3
C7
350
63
  3
C8
350
64
  3
C9
350
65
  3
D0
350
66
  3
D1
350
67
  3
D2
350
68
  0
LAYOUT
  5
1E
102
{ACAD_REACTORS
330
1A
102
}
330
1A
100
AcDbPlotSettings
  1

  2
none_device
  4

  6

 40
0.0
 41
0.0
 42
0.0
 43
0.0
 44
0.0
 45
0.0
 46
0.0
 47
0.0
 48
0.0
 49
0.0
140
0.0
141
0.0
142
1.0
143
1.0
 70
   688
 72
     1
 73
     0
 74
     5
  7

 75
    16
147
1.0
148
0.0
149
0.0
100
AcDbLayout
  1
Layout1
 70
     1
 71
     1
 10
0.0
 20
0.0
 11
420.0
 21
297.0
 12
0.0
 22
0.0
 32
0.0
 14
1.0000000000E+20
 24
1.0000000000E+20
 34
1.0000000000E+20
 15
-1.0000000000E+20
 25
-1.0000000000E+20
 35
-1.0000000000E+20
146
0.0
 13
0.0
 23
0.0
 33
0.0
 16
1.0
 26
0.0
 36
0.0
 17
0.0
 27
1.0
 37
0.0
 76
     0
330
1B
  0
LAYOUT
  5
26
102
{ACAD_REACTORS
330
1A
102
}
330
1A
100
AcDbPlotSettings
  1

  2
none_device
  4

  6

 40
0.0
 41
0.0
 42
0.0
 43
0.0
 44
0.0
 45
0.0
 46
0.0
 47
0.0
 48
0.0
 49
0.0
140
0.0
141
0.0
142
1.0
143
1.0
 70
   688
 72
     1
 73
     0
 74
     5
  7

 75
    16
147
1.0
148
0.0
149
0.0
100
AcDbLayout
  1
Layout2
 70
     1
 71
     2
 10
0.0
 20
0.0
 11
0.0
 21
0.0
 12
0.0
 22
0.0
 32
0.0
 14
0.0
 24
0.0
 34
0.0
 15
0.0
 25
0.0
 35
0.0
146
0.0
 13
0.0
 23
0.0
 33
0.0
 16
1.0
 26
0.0
 36
0.0
 17
0.0
 27
1.0
 37
0.0
 76
     0
330
23
  0
LAYOUT
  5
22
102
{ACAD_REACTORS
330
1A
102
}
330
1A
100
AcDbPlotSettings
  1

  2
none_device
  4
Letter_(8.50_x_11.00_Inches)
  6

 40
6.35
 41
6.35
 42
6.35000508
 43
6.35000508
 44
215.9
 45
279.4
 46
0.0
 47
0.0
 48
0.0
 49
0.0
140
0.0
141
0.0
142
1.0
143
1.0
 70
  1712
 72
     1
 73
     0
 74
     0
  7

 75
     0
147
1.0
148
0.0
149
0.0
100
AcDbLayout
  1
Model
 70
     1
 71
     0
 10
0.0
 20
0.0
 11
1000.0
 21
600.0
 12
0.0
 22
0.0
 32
0.0
 14
0.0
 24
0.0
 34
0.0
 15
1000.0
 25
600.0
 35
0.0
146
0.0
 13
0.0
 23
0.0
 33
0.0
 16
1.0
 26
0.0
 36
0.0
 17
0.0
 27
1.0
 37
0.0
 76
     0
330
1F
331
29
  0
MLINESTYLE
  5
18
102
{ACAD_REACTORS
330
17
102
}
330
17
100
AcDbMlineStyle
  2
Standard
 70
     0
  3

 62
   256
 51
90.0
 52
90.0
 71
     2
 49
0.5
 62
   256
  6
BYLAYER
 49
-0.5
 62
   256
  6
BYLAYER
  0
ACDBPLACEHOLDER
  5
F
102
{ACAD_REACTORS
330
E
102
}
330
E
  0
SCALE
  5
48
102
{ACAD_REACTORS
330
47
102
}
330
47
100
AcDbScale
 70
     0
300
1:1
140
1.0
141
1.0
290
     1
  0
SCALE
  5
49
102
{ACAD_REACTORS
330
47
102
}
330
47
100
AcDbScale
 70
     0
300
1:2
140
1.0
141
2.0
290
     0
  0
SCALE
  5
4A
102
{ACAD_REACTORS
330
47
102
}
330
47
100
AcDbScale
 70
     0
300
1:4
140
1.0
141
4.0
290
     0
  0
SCALE
  5
4B
102
{ACAD_REACTORS
330
47
102
}
330
47
100
AcDbScale
 70
     0
300
1:5
140
1.0
141
5.0
290
     0
  0
SCALE
  5
4C
102
{ACAD_REACTORS
330
47
102
}
330
47
100
AcDbScale
 70
     0
300
1:8
140
1.0
141
8.0
290
     0
  0
SCALE
  5
4D
102
{ACAD_REACTORS
330
47
102
}
330
47
100
AcDbScale
 70
     0
300
1:10
140
1.0
141
10.0
290
     0
  0
SCALE
  5
4E
102
{ACAD_REACTORS
330
47
102
}
330
47
100
AcDbScale
 70
     0
300
1:16
140
1.0
141
16.0
290
     0
  0
SCALE
  5
4F
102
{ACAD_REACTORS
330
47
102
}
330
47
100
AcDbScale
 70
     0
300
1:20
140
1.0
141
20.0
290
     0
  0
SCALE
  5
50
102
{ACAD_REACTORS
330
47
102
}
330
47
100
AcDbScale
 70
     0
300
1:30
140
1.0
141
30.0
290
     0
  0
SCALE
  5
51
102
{ACAD_REACTORS
330
47
102
}
330
47
100
AcDbScale
 70
     0
300
1:40
140
1.0
141
40.0
290
     0
  0
SCALE
  5
52
102
{ACAD_REACTORS
330
47
102
}
330
47
100
AcDbScale
 70
     0
300
1:50
140
1.0
141
50.0
290
     0
  0
SCALE
  5
53
102
{ACAD_REACTORS
330
47
102
}
330
47
100
AcDbScale
 70
     0
300
1:100
140
1.0
141
100.0
290
     0
  0
SCALE
  5
54
102
{ACAD_REACTORS
330
47
102
}
330
47
100
AcDbScale
 70
     0
300
2:1
140
2.0
141
1.0
290
     0
  0
SCALE
  5
55
102
{ACAD_REACTORS
330
47
102
}
330
47
100
AcDbScale
 70
     0
300
4:1
140
4.0
141
1.0
290
     0
  0
SCALE
  5
56
102
{ACAD_REACTORS
330
47
102
}
330
47
100
AcDbScale
 70
     0
300
8:1
140
8.0
141
1.0
290
     0
  0
SCALE
  5
57
102
{ACAD_REACTORS
330
47
102
}
330
47
100
AcDbScale
 70
     0
300
10:1
140
10.0
141
1.0
290
     0
  0
SCALE
  5
58
102
{ACAD_REACTORS
330
47
102
}
330
47
100
AcDbScale
 70
     0
300
100:1
140
100.0
141
1.0
290
     0
  0
SCALE
  5
59
102
{ACAD_REACTORS
330
47
102
}
330
47
100
AcDbScale
 70
     0
300
1/128" = 1'-0"
140
0.0078125
141
12.0
290
     0
  0
SCALE
  5
5A
102
{ACAD_REACTORS
330
47
102
}
330
47
100
AcDbScale
 70
     0
300
1/64" = 1'-0"
140
0.015625
141
12.0
290
     0
  0
SCALE
  5
5B
102
{ACAD_REACTORS
330
47
102
}
330
47
100
AcDbScale
 70
     0
300
1/32" = 1'-0"
140
0.03125
141
12.0
290
     0
  0
SCALE
  5
5C
102
{ACAD_REACTORS
330
47
102
}
330
47
100
AcDbScale
 70
     0
300
1/16" = 1'-0"
140
0.0625
141
12.0
290
     0
  0
SCALE
  5
5D
102
{ACAD_REACTORS
330
47
102
}
330
47
100
AcDbScale
 70
     0
300
3/32" = 1'-0"
140
0.09375
141
12.0
290
     0
  0
SCALE
  5
5E
102
{ACAD_REACTORS
330
47
102
}
330
47
100
AcDbScale
 70
     0
300
1/8" = 1'-0"
140
0.125
141
12.0
290
     0
  0
SCALE
  5
5F
102
{ACAD_REACTORS
330
47
102
}
330
47
100
AcDbScale
 70
     0
300
3/16" = 1'-0"
140
0.1875
141
12.0
290
     0
  0
SCALE
  5
60
102
{ACAD_REACTORS
330
47
102
}
330
47
100
AcDbScale
 70
     0
300
1/4" = 1'-0"
140
0.25
141
12.0
290
     0
  0
SCALE
  5
61
102
{ACAD_REACTORS
330
47
102
}
330
47
100
AcDbScale
 70
     0
300
3/8" = 1'-0"
140
0.375
141
12.0
290
     0
  0
SCALE
  5
62
102
{ACAD_REACTORS
330
47
102
}
330
47
100
AcDbScale
 70
     0
300
1/2" = 1'-0"
140
0.5
141
12.0
290
     0
  0
SCALE
  5
63
102
{ACAD_REACTORS
330
47
102
}
330
47
100
AcDbScale
 70
     0
300
3/4" = 1'-0"
140
0.75
141
12.0
290
     0
  0
SCALE
  5
64
102
{ACAD_REACTORS
330
47
102
}
330
47
100
AcDbScale
 70
     0
300
1" = 1'-0"
140
1.0
141
12.0
290
     0
  0
SCALE
  5
65
102
{ACAD_REACTORS
330
47
102
}
330
47
100
AcDbScale
 70
     0
300
1-1/2" = 1'-0"
140
1.5
141
12.0
290
     0
  0
SCALE
  5
66
102
{ACAD_REACTORS
330
47
102
}
330
47
100
AcDbScale
 70
     0
300
3" = 1'-0"
140
3.0
141
12.0
290
     0
  0
SCALE
  5
67
102
{ACAD_REACTORS
330
47
102
}
330
47
100
AcDbScale
 70
     0
300
6" = 1'-0"
140
6.0
141
12.0
290
     0
  0
SCALE
  5
68
102
{ACAD_REACTORS
330
47
102
}
330
47
100
AcDbScale
 70
     0
300
1'-0" = 1'-0"
140
12.0
141
12.0
290
     0
  0
ENDSEC
  0
EOF
